Misc Unsigned Bands - Black Hearts - An Average Way tab

An Average Way 	Black Hearts	Eternity Favors
www.freewebs.com/blackheartsmusic
I Know this is 100% right because I wrote it
Riley Galloway

Intro: No Guitar 2 yet           

Guitar 1

|------------||------------||------------||------------||0-0-0-0-0---||------------|
|------------||------------||------------||------------||------------||3-3-3-3-3---|
|------------||------------||------------||------------||------------||1-1-1-1-1--0|
|------------||------------||------------||------------||0-0-0-0-0---||------------|
|------------||------------||------------||------------||------------||3-3-3-3-3---|
|------------||------------||------------||------------||------------||1-1-1-1-1--0|
Verse: Guitar 1 does tab while Guitar 2 does power chords
A5 N.C.|---------||---------||---------||---------||0-0------||---------|
G5 N.C.|---------||---------||---------||---------||---------||3-3------|
F5 N.C.|---------||---------||---------||---------||---------||1-1------|
|--------||--------||--------||--------||--------||--------|
A5 N.C.|---------||---------||---------||---------||0-0------||---------|
G5 N.C.|---------||---------||---------||---------||---------||3-3------|
F5 N.C.|---------||---------||---------||---------||---------||1-1------|
|--------||--------||--------||--------||--------||--------|
Chorus: Guitar 1 does tab while Guitar 2 does power chords
A5 N.C.|----------||----------||----------||----------||0-0-0-----||----------|
C5 N.C.|------------||------------||------------||------------||0-0-3-3-3---||------------|
C5 N.C.|-----------||-----------||-----------||------0----||3-3-----3--||-----------|
A5 N.C.|----------||----------||----------||0---------||--3-0-----|
A5 N.C.|----------||----------||----------||----------||0-0-0-----||----------|
C5 N.C.|------------||------------||------------||------------||0-0-3-3-3---||------------|
C5 N.C.|-----------||-----------||-----------||------0----||3-3-----3--||-----------|
A5 N.C.|----------||----------||----------||0---------||--3-0-----|
Verse: Guitar 1 does tab while Guitar 2 does power chords
A5 N.C.|---------||---------||---------||---------||0-0------||---------|
G5 N.C.|---------||---------||---------||---------||---------||3-3------|
F5 N.C.|---------||---------||---------||---------||---------||1-1------|
|--------||--------||--------||--------||--------||--------|
A5 N.C.|---------||---------||---------||---------||0-0------||---------|
G5 N.C.|---------||---------||---------||---------||---------||3-3------|
F5 N.C.|---------||---------||---------||---------||---------||1-1------|
|--------||--------||--------||--------||--------||--------|
Chorus: Guitar 1 does tab while Guitar 2 does power chords
A5 N.C.|----------||----------||----------||----------||0-0-0-----||----------|
C5 N.C.|------------||------------||------------||------------||0-0-3-3-3---||------------|
C5 N.C.|-----------||-----------||-----------||------0----||3-3-----3--||-----------|
A5 N.C.|----------||----------||----------||0---------||--3-0-----|
A5 N.C.|----------||----------||----------||----------||0-0-0-----||----------|
C5 N.C.|------------||------------||------------||------------||0-0-3-3-3---||------------|
C5 N.C.|-----------||-----------||-----------||------0----||3-3-----3--||-----------|
A5 N.C.|----------||----------||----------||0---------||--3-0-----|
Solo: Guitar 1 plays tab while Guitar 2 plays power chords
A5|5---5---5-||-8-5-8-5-8||----------||----------||----------||----------|
B5|7h8p7h8p7h8p7h8||---------------||---------------||---------------||---------------||---------------|
D5|10-12-10----10-12h13~||---------12----------||---------------------||---------------------||---------------------||---------------------|
F5|13-14-16-------18p16\\\13||---------17h18-----------||-------------------------||-------------------------||-------------------------||-------------------------|
E5 G5|12-------------12-15h16||------10h13-15---------||---12------------------||-----------------------||-----------------------||-----------------------|
E5|12p11~~~~~~||12p11~~~~~~||-----------||-----------||-----------||-----------|
Outro: Guitar 1 plays tab while Guitar 2 plays chords
A| ---------------|| ---------------||.---------------||.---------------|| 0-0-0-0-0-0-0-0|| ---------------|
Fm|---------- ||---------- ||----------.||----------.||---------- ||1-1-0~~~~~ |
Tap to rate this tab
 
# A B C D E F G H I J K L M N O P Q R S T U V W X Y Z