Misc Unsigned Bands – Crashcurse - Black Maria tab

1ra||-----------------------------------||x2 2da||-----------------------------------|| 3ra||-----------------------------------|| 4ta||-----------------------------------|| 5ta||0-0-0--0-0-0--0-0-0----------------|| 6ta||0-0-0--0-0-0--0-0-0-0-0-0-0-8-8-8-8||
||------------------------------------||||------------------------------------||||------------------------------------||||-------8-------8-------8------------||||-0-0-0-6-0-0-0-6-0-0-0-6------------||||-0-0-0---0-0-0---0-0-0---0-0-0-8-8-8||
||-----------------||x2||-----------------||||-----------------||||---7-3-2---7-5-2-||||-0-5-1-0-0-5-3-0-||||-0-------0-------||
||-----------------------------------||x4 ||-----------------------------------|| ||-----------------------------------|| ||-----------------------------------|| ||0-0-0--0-0-0--0-0-0----------------|| ||0-0-0--0-0-0--0-0-0-0-0-0-0-8-8-8-8||
<-------------------------------->x2||----------||x7 ||-----||||-------9--|| ||-----||||----------|| ||-----||||-0-0-0-6--|| ||10-8-||||-0-0-0----|| ||10-8-||||-0-0-0----|| ||10-8-||<-------------------------------->
||-----------------||x2 ||----------------------------||x2||-----------------|| ||----------------------------||||-----------------|| ||----------------------------||||---7-3-2---7-5-2-|| ||----0-----8-----5-----7-8-7-||||-0-5-1-0-0-5-3-0-|| ||0-0-0-0-0-8-8-8-5-5-5-7-8-7-||||-0-------0-------|| ||0-0-0-0-0-8-8-8-5-5-5-7-8-7-||
||----------||x7 ||-----||||-------9--|| ||-----||||----------|| ||-----||||-0-0-0-6--|| ||10-8-||||-0-0-0----|| ||10-8-||||-0-0-0----|| ||10-8-||
||----------------||x4 ||----------------------------||x2||----------------|| ||----------------------------||||----------------|| ||----------------------------||||-------7-3-5--2-|| ||----0-----8-----5-----7-8-7-||||-0-0-0-5-1-3--0-|| ||0-0-0-0-0-8-8-8-5-5-5-7-8-7-||||-0-0-0----------|| ||0-0-0-0-0-8-8-8-5-5-5-7-8-7-||
||-----------------------------------||x2 ||-----------------------------------|| ||-----------------------------------|| ||-----------------------------------|| ||0-0-0--0-0-0--0-0-0----------------|| ||0-0-0--0-0-0--0-0-0-0-0-0-0-8-8-8-8||
||------------------------------------||x2||------------------------------------||||------------------------------------||||-------8-------8-------8------------||||-0-0-0-6-0-0-0-6-0-0-0-6------------||||-0-0-0---0-0-0---0-0-0---0-0-0-8-8-8||
||----------||x7 ||------||||-------9--|| ||------||||----------|| ||------||||-0-0-0-6--|| ||10-8-0||||-0-0-0----|| ||10-8-0||||-0-0-0----|| ||10-8-0||
Please rate this tab:
x1.0