Misc Unsigned Bands - As The Embers Fall - A Red Letter Day tab

As The Embers Fall
A Red Letter Day

Drop C
h - Hammer on
p - Pulloff
* - Pinch harmonic
. - Palm mute

--------------------------------------|--------------------------------------|--------------------------------------|--5p0-5p0-8p0-7p0---------------------|--------------------------------------|-----------------0-0-000-0-0-000------| . . ... . . ...
--------------------------------------|--------------------------------------|--------------------------------------|--------------------------------------|--------------------------------------|--000-000-500070008000700050007-------| ... ... .....................Trem picked
--------------------------------------|--------------------------------------|--------------------------------------|--------------------------------------|--------------------------------------|--000-000-500070008000700010-0008-----| ... ... .................. ....Trem Picked
harmony--------------------------------------|--------------------------------------|--------------------------------------|----------500070008000700050007-------|--------------------------------------|--000-000-----------------------------|
... ... .....................--------------------------------------|--------------------------------------|--------------------------------------|----------500070008000700010-0008-----|--------------------------------------|--000-000-----------------------------| ... ...
--------------------------------------|--------------------------------------|--------------------------------------|--------------------------------------|-0-------------------------------0----|-0--00-000-000--0-0-0-0-000-0-0--0----| . .. ... ... . . . . ... . . .
--------------------------------------|--------------------------------------|--------------------------------------|--------------------------------------|--------------------------------------|-0-0-000-000--0-0-0-0-0-000-3*--------| . . ... ... . . . . . ...
soloish riff over breakdown--------------------------------------------------|--------------------------------------------------|-------------------------------------12-----------|--00-12h14-00-15p14-00-10h12-00-15p12--15-14-12---|--------------------------------------------------|--------------------------------------------------| .. .. .. ..
-------------------------------------------------|-------------------------------------------------|----------------------------------14-12----------|--00-12h14-00-15p14-00-12h14-15p12-----15--------|-------------------------------------------------|-------------------------------------------------| .. .. ..
breakdown part 2
---------------------------------------------|------------11------------10------------11---|------------14------------13------------14---|---------------------------------------------|-0-------------0-------------0---------------|-0-0-00-0-0----0-0-00-0-0----0-0-00-0-0------|
. .. . . . .. . . . .. . .-------------------------|-------------------------|-------------------------|------------7-5----------|-0--------------8--------|-0-0-00-0-0--------------| . .. . .
---------------------------------------------|------------11------------13------------10---|------------14------------17------------13---|---------------------------------------------|-0-------------0-------------0---------------|-0-0-00-0-0----0-0-00-0-0----0-0-00-0-0------| . .. . . . .. . . . .. . .
-------------------------|-------------------------|-------------------------|------------10-8---------|-0--------------12-------|-0-0-00-0-0--------------| . .. . .
-------------------------|-------------------------|--10---5-----------------|--8----3-----------2-----|--8----3-----------2-----|--8----3-----------2-----|Strum each chord// End On
-----------------------------------------|-----------------------------------------|-----------------------------------------|-----------------------------------------|-----7--8--3--5--7h8---7--8--3--5--8p7---|--00--00-00-00-00----00-00-00-00-00------|
.. .. .. .. .. .. .. .. .. ..---------------------------|---------------------------|--10---12------------------|--8----10-----------7------|--8----10-----------7------|--8----10-----------7------|Strum each chord// End On
----------------------------------------|----------------------------------------|----------------------------------------|----3-----5-----------3--------3-----5--|-------5-----5--3h5------5----5-----3---|--00-00-00-00-00----00-00----3---005----|
.. .. .. .. .. .. .. .. ....-------------------------|-------------------------|--10---5-----------------|--8----3-----------2-----|--8----3-----------2-----|--8----3-----------2-----|Strum each chord// End On
----------------------------------------------|----------------------------------------------|----------------------------------------------|----------------------------------------------|-----7--8--3--5--7h8---7--8-3h5p3-5h7p5-5h8p5-|--00--00-00-00-00----00-00--------------------| .. .. .. .. .. .. ..
---------------------------|---------------------------|--10---12------------------|--8----10-----------7------|--8----10-----------7------|--8----10-----------7------|Strum each chord// End On
----------------------------------------|----------------------------------------|----------------------------------------|----3-----5-----------3--------3-----5--|-------5-----5--3h5------5----5-----3---|--00-00-00-00-00----00-00----3---005----| .. .. .. .. .. .. .. .. ....Harmony
-------------------------|-------------------------|--10---5-----------------|--8----3-----------2-----|--8----3-----------2-----|--8----3-----------2-----|Strum each chord// End On
-----------------------------------------------|-----------------------------------------------|-----------------------------------------------|-----------------------------------------------|----10--12--7--8--10h12--10--12--7--8--10p12---|--00--00--00-00-00-----00--00--00-00-00--------|
.. .. .. .. .. .. .. .. .. ..---------------------------|---------------------------|--10---12------------------|--8----10-----------7------|--8----10-----------7------|--8----10-----------7------|Strum each chord// End On
----------------------------------------|----------------------------------------|----------------------------------------|----7-----8-----------7--------7-----8--|-------8-----5--7h8------8----8-----7---|--00-00-00-00-00----00-00----7---008----| .. .. .. .. .. .. .. .. ....
-------------------------|-------------------------|--10---5-----------------|--8----3-----------2-----|--8----3-----------2-----|--8----3-----------2-----|Strum each chord// End On
--------------------------------------------------------|--------------------------------------------------------|--------------------------------------------------------|--------------------------------------------------------|----10--12--7--8--10h12--10--12-7h8p7-8h10p8 8h12p8-----|--00--00--00-00-00-----00--00---------------------------| .. .. .. .. .. .. ..
---------------------------|---------------------------|--10---12------------------|--8----10-----------7------|--8----10-----------7------|--8----10-----------7------|Strum each chord// End On
----------------------------------------|----------------------------------------|----------------------------------------|----7-----8-----------7--------7-----8--|-------8-----5--7h8------8----8-----7---|--00-00-00-00-00----00-00----7---008----| .. .. .. .. .. .. .. .. ....
End with open chord------------|------------|------------|--0---------|--0---------|--0---------|
Tap to rate this tab
 
# A B C D E F G H I J K L M N O P Q R S T U V W X Y Z