Misc Unsigned Bands - Arise And Ruin - To The Grind tab

To The Grind
Arise And Ruin
The Final Dawn
http://www.myspace.com/ariseandruin

Tabbed by: Pete_KC
Email: pete8---@hotmail.com
Tunning: Drop B (B,F#,B,E,G#,C#)

IntroGtr 1|---------------------------|----------------------------||---------------------------|----------------------------||---------------------------|----------------------------||---------------------------|----------------------------||---5--5-------------5---6--|--------6---8-------8-6-8---||--------0-0-0-0-0-0---0----|--0-0-0---0---0-0-0---------|\| - - - - - - - - - - - - - - \
|Gtr 2 4X|---------------------------|----------------------------| /|---------------------------|----------------------------|/|---------------------------|----------------------------||---------------------------|----------------------------||---------------------------|----------------------------||---------------------------|----------------------------|
Main Riff (00:12)Gtr 1|---------------------------|-------------------------------| ||---------------------------|-------------------------------| ||---------------------------|-------------------------------| ||---------------------------|-------------------------------| ||---5--5-------------5---6--|--------6---8-------8-6-8------| ||--------0-0-0-0-0-0---0----|--0-0-0---0---0-0-0------------| || - - - - - - - - - - - - - - |
|Gtr 2 ||---------------------------|-------------------------------| ||---------------------------|-------------------------------| ||---------------------------|-------------------------------| ||---------------------------|-------------------------------| ||---9--9-------------9---10-|--------10---12-------12-10-12-| ||--------0-0-0-0-0-0---0----|--0-0-0----0----0-0-0----------| | - - - - - - - - - - - - - - |
2XGtr 1 ||---------------------------|----------------------------| ||---------------------------|----------------------------| ||---------------------------|----------------------------| ||---------------------------|----------------------------| ||---5--5-------------5---6--|--------6---8-------8-6-8---| ||--------0-0-0-0-0-0---0----|--0-0-0---0---0-0-0---------| || - - - - - - - - - - - - - - |
|Gtr 2 ||---------------------------|----------------------------| ||---------------------------|----------------------------| ||---------------------------|----------------------------| ||---------------------------|----------------------------| ||---9--9-------------9---10-|--------10---12-------8-6-8-| ||--------0-0-0-0-0-0---0----|--0-0-0----0----0-0-0-------| | - - - - - - - - - - - - - -
Riff A (00:24) Gtr 1|--------------|--------------------||--------------|--------------------||--------------|--------------------||---0------0---|---0------8--4--7---||---0------0---|---0------8--4--7---||---0------0---|---0------8--4--7---|
|
|Gtr 2|--------------|--------------------||--------------|--------------------||--------------|--------------------||---0------0---|---0------8--4--7---||---0------0---|---0------8--4--7---||---0------0---|---0------8--4--7---|
Gtr 1|--------------|---------------------------------||--------------|---------------------------------||--------------|---------------------------------||---0------0---|---------------------------------||---0------0---|---5-5-5-8-8-8-7-7-7-4-4-4-------||---0------0---|---------------------------------|| - - - - - - - - - - - -
|Gtr 2|--------------|---------------------------------||--------------|---------------------------------||--------------|---------------------------------||---0------0---|---------------------------------||---0------0---|---8-8-8-11-11-11-10-10-10-7-7-7-||---0------0---|---------------------------------| - - - - - - - - - - - - - - -
Gtr 1|--------------|--------------------||--------------|--------------------||--------------|--------------------||---0------0---|---0------8--4--7---||---0------0---|---0------8--4--7---||---0------0---|---0------8--4--7---|
|
|Gtr 2|--------------|--------------------||--------------|--------------------||--------------|--------------------||---0------0---|---0------8--4--7---||---0------0---|---0------8--4--7---||---0------0---|---0------8--4--7---|
Gtr 1|--------------|---------------------------------||--------------|---------------------------------||--------------|---------------------------------||---0------0---|---------------------------------||---0------0---|---5-5-5-8-8-8-7-7-7-4-4-4-------||---0------0---|---------------------------------|| - - - - - - - - - - - -
|Gtr 2|--------------|---------------------------------||--------------|---------------------------------||--------------|---------------------------------||---0------0---|---------------------------------||---0------0---|---8-8-8-11-11-11-10-10-10-7-7-7-||---0------0---|---------------------------------| - - - - - - - - - - - - - - -
Gtr 1 & 2 (00:36)|---------------------------|----------------------------||---------------------------|----------------------------||---------------------------|----------------------------||---------------------------|----------------------------|4X|---5--5-------------5---6--|--------6---8-------8-6-8---||--------0-0-0-0-0-0---0----|--0-0-0---0---0-0-0---------| - - - - - - - - - - - - - -
Gtr 1 & 2 (00:49)|---------------------------|----------------------------||---------------------------|----------------------------||---------------------------|----------------------------||---------------------------|----------------------------|2X|---5--5-------------5---6--|--------6---3-------3-6-3---||--------0-0-0-0-0-0---0----|--0-0-0---0---0-0-0---------|
Gtr 1|---------------------------|-------------------------------| |---------------------------|-------------------------------| |---------------------------|-------------------------------| |---------------------------|-------------------------------| |---5--5-------------5---6--|--------6---8-------8-6-8------| |--------0-0-0-0-0-0---0----|--0-0-0---0---0-0-0------------| | - - - - - - - - - - - - - -
|Gtr 2 |---------------------------|-------------------------------| |---------------------------|-------------------------------| |---------------------------|-------------------------------| |---------------------------|-------------------------------| |---9--9-------------9---10-|--------10---12-------12-10-12-| |--------0-0-0-0-0-0---0----|--0-0-0----0----0-0-0----------| - - - - - - - - - - - - - -
Gtr 1 |---------------------------|----------------------------| |---------------------------|----------------------------| |---------------------------|----------------------------| |---------------------------|----------------------------| |---5--5-------------5---6--|--------6---8-------8-6-8---| |--------0-0-0-0-0-0---0----|--0-0-0---0---0-0-0---------| | - - - - - - - - - - - - - -
|Gtr 2 |---------------------------|----------------------------| |---------------------------|----------------------------| |---------------------------|----------------------------| |---------------------------|----------------------------| |---9--9-------------9---10-|--------10---12-------8-6-8-| |--------0-0-0-0-0-0---0----|--0-0-0----0----0-0-0-------| - - - - - - - - - - - - - -
Gtr 1 (01:01)|--------------|--------------------||--------------|--------------------||--------------|--------------------||---0------0---|---0------8--4--7---||---0------0---|---0------8--4--7---||---0------0---|---0------8--4--7---|
|
|Gtr 2|--------------|--------------------||--------------|--------------------||--------------|--------------------||---0------0---|---0------8--4--7---||---0------0---|---0------8--4--7---||---0------0---|---0------8--4--7---|
Gtr 1|--------------|---------------------------------||--------------|---------------------------------||--------------|---------------------------------||---0------0---|---------------------------------||---0------0---|---5-5-5-8-8-8-7-7-7-4-4-4-------||---0------0---|---------------------------------|| - - - - - - - - - - - -
|Gtr 2|--------------|---------------------------------||--------------|---------------------------------||--------------|---------------------------------||---0------0---|---------------------------------||---0------0---|---8-8-8-11-11-11-10-10-10-7-7-7-||---0------0---|---------------------------------| - - - - - - - - - - - - - - -
Gtr 1|--------------|--------------------||--------------|--------------------||--------------|--------------------||---0------0---|---0------8--4--7---||---0------0---|---0------8--4--7---||---0------0---|---0------8--4--7---|| - - -
|Gtr 2|--------------|--------------------||--------------|--------------------||--------------|--------------------||---0------0---|---0------8--4--7---||---0------0---|---0------8--4--7---||---0------0---|---0------8--4--7---|
- - -Gtr 1 |--------------|---------------------------------||--------------|---------------------------------||--------------|---------------------------------||---0------0---|---------------------------------||---0------0---|---5-5-5-8-8-8-7-7-7-4-4-4-------||---0------0---|---------------------------------|| - - - - - - - - - - - -
|Gtr 2|--------------|---------------------------------||--------------|---------------------------------||--------------|---------------------------------||---0------0---|---------------------------------||---0------0---|---8-8-8-11-11-11-10-10-10-7-7-7-||---0------0---|---------------------------------| - - - - - - - - - - - - - - -
Gtr 1|-----------------------------------------||-----------------------------------------||-----------------------------------------||-----------------------------------------||---8-8-8-11-11-11-10-10-10-7-7-7---------||-----------------------------------------|| - - - - - - - - - - - - - - -
|Gtr 2|-----------------------------------------||-----------------------------------------||-----------------------------------------||-----------------------------------------||---11-11-11-14-14-14-13-13-13-10-10-10---||-----------------------------------------| - - - - - - - - - - - - - - - - -
Chorus (2X)(01:15) Gtr 1|----------------------------|----------------------------||----------------------------|----------------------------||----------------------------|----------------------------||---0-0-0-0-0-0-0-0-0-0-0-0--|--0-0-0-0-0-0-0-0-0-0-0-0---||---0-0-0-0-0-0-0-0-0-0-0-0--|--0-0-0-0-0-0-0-0-0-0-0-0---||---0-0-0-0-0-0-0-0-0-0-0-0--|--0-0-0-0-0-0-0-0-0-0-0-0---|
|
|Gtr 2|----------------------------|----------------------------||----------------------------|----------------------------||---7-7-7-7-7-7-7-7-7-7-7-7--|--7-7-7-7-7-7-7-7-7-7-7-7---||----------------------------|----------------------------||---5-5-5-5-5-5-5-5-5-5-5-5--|--5-5-5-5-5-5-5-5-5-5-5-5---||----------------------------|----------------------------|
Gtr 1|----------------------------|----------------------------||----------------------------|----------------------------||----------------------------|----------------------------||---8-8-8-8-8-8-8-8-8-8-8-8--|--8-8-8-8-8-8-8-8-8-8-8-8---||---8-8-8-8-8-8-8-8-8-8-8-8--|--8-8-8-8-8-8-8-8-8-8-8-8---||---8-8-8-8-8-8-8-8-8-8-8-8--|--8-8-8-8-8-8-8-8-8-8-8-8---|
|
|Gtr 2|----------------------------|----------------------------||----------------------------|----------------------------||---6-6-6-6-6-6-6-6-6-6-6-6--|--6-6-6-6-6-6-6-6-6-6-6-6---||----------------------------|----------------------------||---4-4-4-4-4-4-4-4-4-4-4-4--|--4-4-4-4-4-4-4-4-4-4-4-4---||----------------------------|----------------------------|
Gtr 1|----------------------------|----------------------------||----------------------------|----------------------------||----------------------------|----------------------------||---3-3-3-3-3-3-3-3-3-3-3-3--|--3-3-3-3-3-3-3-3-3-3-3-3---||---3-3-3-3-3-3-3-3-3-3-3-3--|--3-3-3-3-3-3-3-3-3-3-3-3---||---3-3-3-3-3-3-3-3-3-3-3-3--|--3-3-3-3-3-3-3-3-3-3-3-3---|
|
|Gtr 2|----------------------------|----------------------------||----------------------------|----------------------------||---5-5-5-5-5-5-5-5-5-5-5-5--|--5-5-5-5-5-5-5-5-5-5-5-5---||----------------------------|----------------------------||---3-3-3-3-3-3-3-3-3-3-3-3--|--3-3-3-3-3-3-3-3-3-3-3-3---||----------------------------|----------------------------|
Gtr 1|----------------------------|----------------------------||----------------------------|----------------------------||----------------------------|----------------------------||---7-7-7-7-7-7-7-7-7-7-7-7--|--7-7-7-7-7-7-8-8-8-5-5-5---||---7-7-7-7-7-7-7-7-7-7-7-7--|--7-7-7-7-7-7-8-8-8-5-5-5---||---7-7-7-7-7-7-7-7-7-7-7-7--|--7-7-7-7-7-7-8-8-8-5-5-5---|
|
|Gtr 2|----------------------------|----------------------------||----------------------------|----------------------------||---6-6-6-6-6-6-6-6-6-6-6-6--|--6-6-6-6-6-6-6-6-6-6-6-6---||----------------------------|----------------------------||---4-4-4-4-4-4-4-4-4-4-4-4--|--4-4-4-4-4-4-4-4-4-4-4-4---||----------------------------|----------------------------|
2/4Gtr 1|-----------------||-----------------||-----------------||-----------------||-----------------||-----------------|
|
|Gtr 2|-----------------||-----------------||-----------------||-----------------||---0-0-0-0-0-0---||---0-0-0-0-0-0---| - - - - - -
4/4Breakdown (01:40)Gtr 1 & 2|----------------------------|----------------------------||----------------------------|----------------------------||----------------------------|----------------------------||----------------------------|----------------------------||---0-0-0-0-0-0-0-0-0-0-0-0--|--0-0-0-0-0-0-0-0-0-0-0-0---||---0-0-0-0-0-0-0-0-0-0-0-0--|--0-0-0-0-0-0-0-0-0-0-0-0---|\| - - - - - - - - - - - - - - - - - - - - - - - - \
| 4X|----------------------------|----------------------------| / |----------------------------|----------------------------|/|----------------------------|----------------------------||----------------------------|----------------------------||---0-0-0-0-0-0-0-0-0-0-0-0--|----------------------------||---0-0-0-0-0-0-0-0-0-0-0-0--|--2-0-2-0-2b----------------| - - - - - - - - - - - -
Repeat Chorus
Solo (02:29)|---------|------------|---------|------------||---------|------------|---------|------------||---7~----|--9~--10~---|--6~-----|--7~---9~---||---------|------------|---------|------------||---------|------------|---------|------------||---------|------------|---------|------------|
|--------------------------10-12-13-12-10------||-----------------10-12-13----------------13---||----------7-9-10------------------------------||---7-9-10-------------------------------------||----------------------------------------------||----------------------------------------------|
|-----------------------|--13-12-10----------12-10-------------||---12-10-13-12-13~-----|-----------13-12-10-------13-12-10----||-----------------------|-----------------------------------13-||-----------------------|--------------------------------------||-----------------------|--------------------------------------||-----------------------|--------------------------------------|
|---12-10--------------------------------|-------------||---------13-12-10----12-10----10--------|-------------||------------------13-------13----13-12--|--14~--------||----------------------------------------|-------------||----------------------------------------|-------------||----------------------------------------|-------------|
|---14---------------14---------------------||------15----------15---15------------------||---------14----14---------14----------14---||------------16---------------16-12-16------|3X|-------------------------------------------||-------------------------------------------|
|---17---15---15-17-15--|--14--------||-----------------------|------------||-----------------------|------------||-----------------------|------------||-----------------------|------------||-----------------------|------------|
t t t t t t t t t t t t|---22-17-22-14-22-17-22-14-22-17-22-14------------------------------------||---------------------------------------21-17-21-14-21-17-21-14-21-17-21-14||--------------------------------------------------------------------------||--------------------------------------------------------------------------||--------------------------------------------------------------------------||--------------------------------------------------------------------------|
t t t t t t|---22-17-22-14-22-17-22-14-22-17-22-14--------||---------------------------------------17b----||----------------------------------------------||----------------------------------------------||----------------------------------------------||----------------------------------------------|
Repeat Breakdown END - Palm Mute b Bend ~ Vibrato t Tap
Tap to rate this tab
 
# A B C D E F G H I J K L M N O P Q R S T U V W X Y Z