Misc Unsigned Bands - Keeper - Lord Of The Land tab

Lord of the Land of Keeper, tabbed by Elari Sepp (djcrediitti@hotmail.com)



Intro:

Guitar 1:

|--------------------------------------------------------------||--------------------------------------------------------------||--------------------------------------------------------------||--------------------------------------------------------------||--7-----------7-------------7----------7-----------7----------||-----6--7--8-----6--7--8------6--7--8-----6--7--8-----6--7--8-|
|----------------------------------------||----------------------------------------||----------------------------------------||----------------------------------------||--9-10-9-10-9-10-9-10-9-10-9-10-9-10-9--||----------------------------------------|
Guitar 2:
|--0-----------0-------------0-----------0-----------0--------||--2-----------2-------------2-----------2-----------2--------||--2-----------2-------------2-----------2-----------2--------||--2-----------2-------------2-----------2-----------2--------||--0-----------0-------------0-----------0-----------0--------||-------------------------------------------------------------|
|----------------------------------------||----------------------------------------||--1----1----1----1----1----1----1----1--||--2----2----2----2----2----2----2----2--||--2----2----2----2----2----2----2----2--||----------------------------------------|
Verse 1(Guitars 1&2):
|----------------------------------------------||----------------------------------------------||----------------------------------------------| |----------------------------------------------||--3--3--3--3--3--3--3--3---12--11--10--9--8---| (2x)|--3--3--3--3--3--3--3--3---12--11--10--9--8---|
|----------------------------------------------||----------------------------------------------||----------------------------------------------||--3--3--3--3--3--3--3--3---12--11--10--9--8---||--3--3--3--3--3--3--3--3---12--11--10--9--8---| (2x)|----------------------------------------------|
|------------------------------------------0--0--0---||------------------------------------------2--2--2---||----4-------3----4-------3----4-------3---2--2--2---||--3---5--4-----3---5--4-----3---5--4------2--2--2---||------------------------------------------0--0--0---||----------------------------------------------------|
Chorus (Guitars 1&2):
|---0--0--0---0--0--0---0--------------------||---2--2--2---0--0--0---0---17--15--17-------||---2--2--2---2--2--2---3---------------17---||---2--2--2---2--2--2---3--------------------||---0--0--0---2--2--2---3--------------------||-------------0--0--0---0--------------------|
|---0--0--0---0--0--0---0--------------------||---2--2--2---0--0--0---0---17--15--17--17---||---2--2--2---2--2--2---3--------------------||---2--2--2---2--2--2---3--------------------||---0--0--0---2--2--2---3--------------------||-------------0--0--0---0--------------------|
Verse 2 (Guitars play the same):
|---------------------------------------------------------------||---------------------------------------------------------------||----------------------------------------------19--19--19--20b--||---------------------------------------------------------------||--3--3--3--3--3--3--3--3---12--11--10--9--8--------------------||--3--3--3--3--3--3--3--3---12--11--10--9--8--------------------|
|----------------------------------------------||----------------------------------------------||----------------------------------------------||----------------------------------------------||--3--3--3--3--3--3--3--3---12--11--10--9--8---||----------------------------------------------|
|------------------------------------------0--0--0------||------------------------------------------2--2--2------||----4-------3-----4-------3----4------3---2--2--2------||--3---5---4-----3---5--4-----3---5--4-----2--2--2------||------------------------------------------0--0--0------||-------------------------------------------------------|
Chorus Solo: Guitar 1:
|----------------------------------------------------------------||--9-7-9-7-9-7-9-7--11-9-11-9-11-9-11-9--13-11-13-11-13-11-13-11-||----------------------------------------------------------------||----------------------------------------------------------------||----------------------------------------------------------------||----------------------------------------------------------------|
|-----------------------------------------------------||-15-13-15-13-15-13-15-13--11-13-9-11-7-9-5-7-3-5-1-3-||-----------------------------------------------------||-----------------------------------------------------||-----------------------------------------------------||-----------------------------------------------------|
|-----------------------------------------------||-19-20-22-20-19-22-20-19-22-20-19-22-20-19-22b-||-----------------------------------------------||-----------------------------------------------||-----------------------------------------------||-----------------------------------------------|
Guitar 2:
|--0--0--0--0---0--0---0----||--2--2--2--0---0--0---0----||--2--2--2--2---2--2---3----||--2--2--2--2---2--2---3----||--0--0--0--2---2--2---3----| (8x)|-----------0---0--0---0----|
Verse 3 (Once again, guitars play the same):
|--------------------------------------------||--------------------------------------------||--------------------------------------------||--------------------------------------------||--3--3--3--3--3--3--3--3--12--11--10--9--8--||--3--3--3--3--3--3--3--3--12--11--10--9--8--|
|--------------------------------------------------------------------0-0-0-||--------------------------------------------------------------------2-2-2-||-----4-------3----4-------3----4-------3----------------------------2-2-2-||---3---5--4-----3---5--4-----3---5--4------7---9---11---13----15----2-2-2-||---------------------------------------------5---7----9----11---13--0-0-0-||--------------------------------------------------------------------------|
Chorus End (Guitars play the same):
|--0-0-0--0-0-0--0-0-0--0-0-0--0---------------||--2-2-2--2-2-2--2-2-2--0-0-0--0--17-15-17-----||--2-2-2--2-2-2--2-2-2--2-2-2--3-----------17--||--2-2-2--2-2-2--2-2-2--2-2-2--3---------------||--0-0-0--0-0-0--0-0-0--2-2-2--3---------------||-----------------------0-0-0--0---------------|
Chorus
|--0--0--0--0--||--2--2--2--2--||--2--2--2--2--||--2--2--2--2--||--0--0--0--0--||--------------|
Tap to rate this tab
 
# A B C D E F G H I J K L M N O P Q R S T U V W X Y Z