Misc Unsigned Bands – Hellbound - Arachnid tab

Artist:    Hellbound
Song:      Arachnid
Tabbed by: xHellbound


Someone asked me to tab this, if you make a cover, send it to me please. ^^

It's on my profile if you want to give it a listen to. 

The guitar is tuned a ½ step down.

The riffs are ordered as they occur.


~   - vibrato/hold note
/   - slide down
\   - slide up
PM  - palm mute
tr  - tremolo pick
w   - whammy
*   - see note
+   - tap
h   - hammer-on
p   - pull-off
x   - rake



Intro

|----------||----------||----------||----------||--4/14~~--||--2/12~~--|
Riff 1
|------------------------------------------------||------------------------------------------------||------------------------------------------------||------------------------------------------------||-----14-14-----15-15-----14-14-----12-12--------||--12--------12--------12--------12-------15-15--|
Riff 2
|---------------------------|----------------||---------------------------|----------------||---------------------------|----------------||---------------------------|----------------||-----12----14----15----14--|----12----14~~--||--12----12----12----12-----|-12-12----12~~--|
Riff 3
|----------------------|--------------------------------||----------------------|--------------------------------||----------------------|--------------------------------||----------------------|-----------------------------2--||--12--12-12\10--10\7--|--7/12--12-12\10--10\7--7\3--2--||--10--10-10\8---8-\5--|--5/10--10-10\8---8-\5--5\1--0--|
Riff 4
|------------------------------------------|------||------------------------------------------|------||-------------5-4-----4-2-----2------------|------||-----------2-------2-------2---5---2-5-4--|--2~--||--2-2-2-2---------------------------------|------||--0-0-0-0---------------------------------|------|PM . . . .
Solo - Just tremolo pick and go nuts along those notes.
|-------------------------|-----------------||-------------------------|-----------------||--9tr10--10tr12--12tr15--|--10tr12--9tr10--||-------------------------|-----------------||-------------------------|-----------------||-------------------------|-----------------|
|-------------------------------------------------||-------------------------------------------------||--9tr10tr12--9tr12tr10--/15--12tr15--\9tr10tr12--||-------------------------------------------------||-------------------------------------------------||-------------------------------------------------|
|------------|---------||------------|---------||--9tr9-10*--|--9~~~~--||------------|---------||------------|---------||------------|---------|*Gradually increase speed
Riff 3b
|----------------------|-------------|---------------------------------||----------------------|-------------|---------------------------------||----------------------|-------------|---------------------------------||----------------------|-------------|-----------------------------2w--||--12--12-12\10--10\7--|--7/12-10-7--|--7/12--12-12\10--10\7--7\3--2w--||--10--10-10\8---8-\5--|--5/10-8--5--|--5/10--10-10\8---8-\5--5\1--0w--|
Riff 5 - Reverb on
+ + + + + + +|---------------------------------||--12p2-9p2-10p2-7p2-5p2-7p2-9p2--||---------------------------------||---------------------------------||---------------------------------||---------------------------------|
Riff 6
+ + + + +|-------------------------||--12p2-9p2-10p2-7p2-5p2--||-------------------------||-------------------------||-------------------------||-------------------------|
+ + + + + +|---------------------------------------||--12p2-9p2--10p2-7p2--8p2-5p2--2/12\0--||---------------------------------------||---------------------------------------||---------------------------------------||---------------------------------------|
Outro
|--13-10-----------------------------||--------13-10-----------------------||--------------12p10-12p10----10-----||--------------------------12----12--||------------------------------------||------------------------------------|
|------------------------------------||------------------------------------||--9h10p9--10-10h12h10--12-12h15p12--||------------------------------------||------------------------------------||------------------------------------|
|---------------||---------------||--x------------||---x-----------||----x--14~~\4--||-----x-12~~\2--|Strum up as you move your fingers to the chord, then quickly strum down
Please rate this tab:
x1.0