Misc Unsigned Bands - Thunder Kiss - Vulcan tab

Vulcan By Thunder kiss   (incomplete)            tabs by Kenny Doss, Ryan Thomas, and 
Ravstien  Questions or Comments Email me at kenn28@gmail.com

Alaskan Bands

Lyrics are unknown (are lead singers in jail right now so we dont have the lyrics for this song)

3-3-3-0-5-5-5-0-7-6-5-3-3-3-0-5-5-5-0-4-2-0------------|-------------------------------------------------------|-------------------------------------------------------|-------------------------------------------------------|-------------------------------------------------------|-------------------------------------------------------|
-------------------------------------------------------|3-3-3-0-5-5-5-0-7-6-5-3-3-3-0-5-5-5-0-4-2-0------------|-------------------------------------------------------|-------------------------------------------------------|-------------------------------------------------------|-------------------------------------------------------|
-------------------------------------------------------|-------------------------------------------------------|3-3-3-0-5-5-5-0-7-6-5-3-3-3-0-5-5-5-0-4-2-0------------|-------------------------------------------------------|-------------------------------------------------------|-------------------------------------------------------|
-------------------------------------------------------|-------------------------------------------------------|-------------------------------------------------------|3-3-3-0-5-5-5-0-7-6-5-3-3-3-0-5-5-5-0-4-2-0------------|-------------------------------------------------------|-------------------------------------------------------|
-------------------------------------------------------|-------------------------------------------------------|-------------------------------------------------------|-------------------------------------------------------|3-3-3-0-5-5-5-0-7-6-5-3-3-3-0-5-5-5-0-4-2-0------------|-------------------------------------------------------|
3-4-3-4-3-4-3-4----------------------------------------|-------------------2-2-2-3-0-2-3-0-3-2-0-2-3-----------|-------------------------------------------------------|-------------------------------------------------------|-------------------------------------------------------|-------------------------------------------------------|
5-7-6-0-5-7-6-0-5-7-6-0-5-7-6-0---5-5-79--------------|-------------------------------------------------------|-------------------------------------------------------|-------------------------------------------------------|-------------------------------------------------------|-------------------------------------------------------|
12-12-12975-----------------------------------------|-----------------------------3-3-3-3-6-5-5-3-1-3-------|-------------------------------------------------------|-------------------------------------------------------|-------------------------------------------------------|-------------------------------------------------------|
-------------------------------------------------------|-------------------------------------------------------|-------------------------------------------------------|-------------------------------------------------------|33-3-44-4-55-5----3-3-4-4-5-5-4-4-3-----------------|-------------------------------------------------------|
-------------------------------------------------------|-------------------------------------------------------|-------------------------------------------------------|-------------------------------------------------------|3-4-4-5-5-4-4-3-3-4-4-5-5-3-3--------------------------|-------------------------------------------------------|
5-4-0-5-4-0540---5---4---0---5---4---0--------------|-------------------------------------------------------|-------------------------------------------------------|-------------------------------------------------------|-------------------------------------------------------|-------------------------------------------------------|
5---4---0---5---4---0---5------4----------0-----------|------------------------------------------------------|------------------------------------------------------|------------------------------------------------------|------------------------------------------------------|------------------------------------------------------|
Tap to rate this tab
 
# A B C D E F G H I J K L M N O P Q R S T U V W X Y Z