Misc Unsigned Bands – Squirrel Bait - Sun God tab

http://en.wikipedia.org/wiki/Squirrel_Bait
http://allmusic.com/cg/amg.dll?p=amg&sql=11:riaxlfwe5cqp
http://www.myspace.com/squirrelbaittheband

song: Sun God
band: Squirrel Bait
album: Squirrel Bait (1985)

ok, it sound like this...

                                                            
  play it in the intro and in all verses:

E||-------------------------|------------------------|B||-------------------------|------------------------|G||-------------------------|----------4-------0-----|D||-------5--------5--------|--5------------5-----5--|A||-------------------------|-------7----------------|E||--5-------5--5-----5--5--|------------------------|
|------------------------|--------------------------| |------------------------|--------------------------| |------------0--------0--|--------0--------0--------| |-------4-------4--------|--4--------4--------4-----| |--5---------------5-----|-----5--------5--------5--| |------------------------|--------------------------|
sorry it's all wrong, I know.. (then the same but with different ending)
|-------------------------|------------------------| |-------------------------|------------------------| |-------------------------|----------4-------0-----| |-------5--------5--------|--5------------5-----5--| |-------------------------|-------7----------------| |--5-------5--5-----5--5--|------------------------|
|-----------------------|-----------------------|| |-----------------------|-----------------------|| |------------0----------|-----7-------7---------|| |-------4-------4-------|-----------------------|| |--5---------------5----|----------5-------5----|| |-----------------------|-----------------------||
Chorus:
|--2--2--2--2--2--2--2--2--|--2--2--2--2--2--2--2--2--| |--3--3--3--3--3--3--3--3--|--3--3--3--3--3--3--3--3--| |--2--2--2--2--2--2--2--2--|--2--2--2--2--2--2--2--2--| |--0--0--0--0--0--0--0--0--|--0--0--0--0--0--0--0--0--| |--------------------------|--------------------------| |--------------------------|--------------------------|
|--0--0--0--0--0--0--0--0--|--------------------------|| |--1--1--1--1--1--1--1--1--|--------------------------|| |--0--0--0--0--0--0--0--0--|--------------------------|| |--2--2--2--2--2--2--2--2--|--5--5--5--5--5--5--5--5--|| |--3--3--3--3--3--3--3--3--|--5--5--5--5--5--5--5--5--|| |--------------------------|--3--3--3--3--3--3--3--3--||
It's following after second and third chorus:
|--2----2--2----2--2----|--0--0--0----------------|| |--3----3--3----3--3----|--1--1--1----------------|| |--2----2--2----2--2----|--0--0--0--2----2--2--2--|| |--0----0--0----0--0----|--2--2--2--2----2--2--2--|| x4 |-----------------------|--3--3--3--0----0--0--0--|| |-----------------------|-------------------------||
|--0----0--0-------------|--------------------------|| |--1----1--1-------------|-----2-----2-----2--2--2--|| |--0----0--0-------------|-----2-----2-----2--2--2--|| |--2----2--2--5----5--5--|-----2-----2-----2--2--2--|| x3 |--3----3--3--5----5--5--|-----0-----0-----0--0--0--|| |-------------3----3--3--|--------------------------||
|-------------------|-------------------|| |-------------------|-------------------|| |-------------------|-------------------|| |--5----------------|--2----------------|| |--5----------------|--2----------------|| |--3----------------|--0----------------||
tabbed by allex 2008
Please rate this tab:
x1.0