Misc Unsigned Bands – Mark Sandvig - The Stalker Song tab

#This file is the author's own work and represents their interpretation of the song. You 
only use this file for private study, scholarship, or research.#

Mark Sandvig - The Stalker song


Intro

|---------------------------------------------------------------0-||-----------------------------------------------------------------||-----------------------------------------------------------------||6------------------------1-2---------------------------2---------||--7-7--9-6-6--7-4-4-2-2------2--4-4-2------------------2---------||---------------------------------------5-5--4--0-0--2--0 --------|
Intro 2
|--------------------------------||--------------------------------||--------4--4-4--6--6-6--2-2-2-2-||2--2-2--4--4-4--6--6-6--2-2-2-2-||2--2-2--2--2-2--4--4-4--0-0-0-0-||0--0-0--------------------------|
|----------------------------||----------------------------||--------4--4-4--------------||2--2-2--4--4-4--7--6-8-6--4-||2--2-2--2--2-2--7--6-8-6--4-||0--0-0----------5--4-5-4--2-|
|--------------------------------||--------------------------------||--------4--4-4--6--6-6--2-2-2-2-||2--2-2--4--4-4--6--6-6--2-2-2-2-||2--2-2--2--2-2--4--4-4--0-0-0-0-||0--0-0--------------------------|
|----------------------------||----------------------------||9--9-9----------------------||9--9-9--9--9-9--7--6-7-6--4-||7--7-7--9--9-9--7--6-7-6--4-||--------7--7-7--5--4-5-4--2-|
Verse
|-------------------------------------------||-------------------------------------------||----------4---------6---------2-2-2-2------| x2|2---------4---------6---------2-2-2-2------||2---------2-222222--4-444444--0-0-0-0------||0-000000-----------------------------------| pm pm pm
Chorus1
|------------------------------------||------------------------------------||--------8--8-8----------------------| x2|2--2-2--8--8-8--7--7-7--9--9-9------||2--2-2--6--6-6--7--7-7--9--9-9------||0--0-0----------5--5-5--7--7-7------|
-> Verse -> Chorus1 Bridge1
|-----------------------------------||-----------------------------------||--------4--4-4--6-6-6-6-6-6-6-6----| x2|2--2-2--4--4-4--6-6-6-6-6-6-6-6----||2--2-2--2--2-2--4-4-4-4-4-4-4-4----||0--0-0-----------------------------|
|----------------------------------------------------------------||----------------------------------------------------------------||2-2-2-2-2-2-2-2-2-2-2-2-2-2-2-2--4-4-4-4-4-4-4-4-4--------4-4-4-||2-2-2-2-2-2-2-2-2-2-2-2-2-2-2-2--4-4-4-4-4-4-4-4-4--------4-4-4-||0-0-0-0-0-0-0-0-0-0-0-0-0-0-0-0--2-2-2-2-2-2-2-2-2--------2-2-2-||----------------------------------------------------------------|
Chorus 2
|------------------------------- |----------------------------||------------------------------- |----------------------------||--------4--4-4--6--6-6--2-2-2-2 x3 |----------------------------||2--2-2--4--4-4--6--6-6--2-2-2-2 |7--7-7--9--9-9--7--6-7-6--4-||2--2-2--2--2-2--4--4-4--0-0-0-0 |9--9-9--9--9-9--7--6-7-6--4-||0--0-0------------------------- |--------7--7-7--5--4-5-4--2-|
Verse 2
|----------------------------------||----------------------------------||--------4--4-4--6--6-6--2-2-2-2---| x2|2--2-2--4--4-4--6--6-6--2-2-2-2---||2--2-2--2--2-2--4--4-4--0-0-0-0---||0--0-0----------------------------|
-> Chorus1 Bridge 2
|-------------------------------||-------------------------------||--------4--4-4--6-6-8-8-9-9-11-||2--2-2--4--4-4--6-6-8-8-9-9-11-||2--2-2--2--2-2--4-4-6-6-7-7-9--||0--0-0-------------------------|
-> Bridge 1 (Part 2 modified) -> Chorus 2 Bridge 3
|----------------------------- |------------------------------||----------------------------- |------------------------------||--------4--4-4--6--6-6------- |--------4--4-4--6--6-6--------||2--2-2--4--4-4--6--6-6--6-7-6 |2--2-2--4--4-4--6--6-6--6-7-9-||2--2-2--2--2-2--4--4-4--6-7-6 |2--2-2--2--2-2--4--4-4--6-7-9-||0--0-0------------------4-5-4 |0--0-0------------------4-5-7-|
|--------------------------------- |----------------------------------||--------------------------------- |----------------------------------||9--9-9--------------------------- |9--9-9----------------------------||9--9-9--9--9-9--11-11-11--7-7-7-7 |9--9-9--9--9-9--7-----------------||7--7-7--9--9-9--11-11-11--7-7-7-7 |7--7-7--9--9-9--7-----------------||--------7--7-7--9--9-9----5-5-5-5 |--------7--7-7--5-555555-77777777-| pm pm
-> Chorus 2/Verse 2 with little modifications 'till the end Hope you like it, have fun -Itch
Please rate this tab:
x1.0