Misc Unsigned Bands – Haywyre - That Was A Close One tab

That Was A Close One
BY:Haywyre

Intro

e--------------------------|--------------------------|b--------------------------|--------------------------|g-6b6.5---6---6--6-6--6-9~-|-6b6.5---6---6--6-6--6----|d-------9---9--------------|-------9---9-----------7~-|a--------------------------|--------------------------|E--------------------------|--------------------------|PM _______________ _______________
|--------------------------|---------------------------||--------------------------|---------------------------||-6b6.5---6---6--6-6--6-9~-|-9-9b11r-7-----------------||-------9---9--------------|-----------9p7-------------||--------------------------|---------------7-9p7----7~-||--------------------------|---------------------10----|PM _______________ __
|--------------------------|--------------------------||--------------------------|--------------------------||-6b6.5---6---6--6-6--6-9~-|-6b6.5---6---6--6-6--6----||-------9---9--------------|-------9---9-----------7~-||--------------------------|--------------------------||--------------------------|--------------------------|PM _______________ _______________
|--------------------------|-------------------------------||--------------------------|-8h10p8~-----------------------||-6b6.5---6---6--6-6--6-9~-|---------9p7-------------------||-------9---9--------------|-------------9p7---------------||--------------------------|-----------------7=h9p7----7h9~||--------------------------|------------------------10-----|PM _______________
|--------------------------|--------------------------||--------------------------|--------------------------||--------------------------|--------------------------||--------------------------|--------------------------|
|~~~~~~~~~~~~~~~~~~~~~~~~~~|~~~~~~~~~~~~~~~~~~~~~~~~/\||--------------------------|--------------------------|
Verse
e------------------------------|------------------------------|b----------------------------3-|------------------------------|g-2------2------2----2-------2-|-2------2------2----2---------|d-2------2------2----2-------0-|-2------2------2----2-------2-|a-0------0------0----0---------|-0------0------0----0-------2-|E----3b-----3b----3b---5b5.5---|----3b-----3b----3b---5b5.5-0-|
|------------------------------|------------------------------||----------------------------3-|---4b5r-2---------------------||-2------2------2----2-------2-|-2-4b6r-2-------------7-9\----||-2------2------2----2-------0-|--------0-4p2---------7-9\----||-0------0------0----0---------|--------------2h4p2---5-7\----||----3b-----3b----3b---5b5.5---|--------------------3---------|
|------------------------------|------------------------------||----------------------------3-|------------------------------||-2------2------2----2-------2-|-2------2------2----2---------||-2------2------2----2-------0-|-2------2------2----2-------2-||-0------0------0----0---------|-0------0------0----0-------2-||----3b-----3b----3b---5b5.5---|----3b-----3b----3b---5b5.5-0-|
|------------------------------|------------------------------||----------------------------3-|---4b5r-2---------------------||-2------2------2----2-------2-|-2-4b6r-2-------------2~~~~~~~||-2------2------2----2-------0-|--------0-4p2-----------------||-0------0------0----0---------|--------------2h4p2-----------||----3b-----3b----3b---5b5.5---|--------------------3---------|
Chorus
e-------------------------|-------------------------|b---8---------------------|---8---------------------|g---7----7------5----2----|---7----7------3===/5-5--|2xd-6-6----7------5----2----|-6-6----7------3===/5-5--|a-7-7----5----3-3----0----|-7-7----5----1-1===/3-3--|E-------------------------|-------------------------|
e-------------------------|----------------------------------|b---8---------------------|---8------------------------------|g---7----7------5----2----|---7----7----6-9p6-6--------------|d-6-6----7------5----2----|-6-6----7------------7p5~---------|a-7-7----5----3-3----0----|-7-7----5-----------------1-1---3~|E-------------------------|----------------------------------|
Bridge To Verse
e--------------------------|--------------------------|b--------------------------|--------------------------|g-6b6.5---6---6--6-6--6-9~-|-6b6.5---6---6--6-6--6----|d-------9---9--------------|-------9---9-----------7~-|a--------------------------|--------------------------|E--------------------------|--------------------------|PM _______________ _______________
|--------------------------|---------------------------||--------------------------|---------------------------||-6b6.5---6---6--6-6--6-9~-|-9-9b11r-7-----------------||-------9---9--------------|-----------9p7-------------||--------------------------|---------------7-9p7----7~-||--------------------------|---------------------10----|PM _______________ __
Verse
e------------------------------|------------------------------|b----------------------------3-|------------------------------|g-2------2------2----2-------2-|-2------2------2----2---------|d-2------2------2----2-------0-|-2------2------2----2-------2-|a-0------0------0----0---------|-0------0------0----0-------2-|E----3b-----3b----3b---5b5.5---|----3b-----3b----3b---5b5.5-0-|
|------------------------------|------------------------------||----------------------------3-|---4b5r-2---------------------||-2------2------2----2-------2-|-2-4b6r-2-------------7-9\----||-2------2------2----2-------0-|--------0-4p2---------7-9\----||-0------0------0----0---------|--------------2h4p2---5-7\----||----3b-----3b----3b---5b5.5---|--------------------3---------|
|------------------------------|------------------------------||----------------------------3-|------------------------------||-2------2------2----2-------2-|-2------2------2----2---------||-2------2------2----2-------0-|-2------2------2----2-------2-||-0------0------0----0---------|-0------0------0----0-------2-||----3b-----3b----3b---5b5.5---|----3b-----3b----3b---5b5.5-0-|
|------------------------------|------------------------------||----------------------------3-|---4b5r-2---------------------||-2------2------2----2-------2-|-2-4b6r-2-------------2~~~~~~~||-2------2------2----2-------0-|--------0-4p2-----------------||-0------0------0----0---------|--------------2h4p2-----------||----3b-----3b----3b---5b5.5---|--------------------3---------|
Chorus
e-------------------------|-------------------------|b---8---------------------|---8---------------------|g---7----7------5----2----|---7----7------3===/5-5--|2xd-6-6----7------5----2----|-6-6----7------3===/5-5--|a-7-7----5----3-3----0----|-7-7----5----1-1===/3-3--|E-------------------------|-------------------------|
e-------------------------|-------------------------------------|b---8---------------------|---8---------------------------------|g---7----7------5----2----|---7----7----6-9p6-6-----------------|d-6-6----7------5----2----|-6-6----7------------7p5~------------|a-7-7----5----3-3----0----|-7-7----5-----------------3p0h3------|E-------------------------|--------------------------------1h3~-|
Bridge To Verse
e--------------------------|--------------------------|b--------------------------|--------------------------|g-6b6.5---6---6--6-6--6-9~-|-6b6.5---6---6--6-6--6----|d-------9---9--------------|-------9---9-----------7~-|a--------------------------|--------------------------|E--------------------------|--------------------------|PM _______________ _______________
|--------------------------|---------------------------||--------------------------|---------------------------||-6b6.5---6---6--6-6--6-9~-|-9-9b11r-7-----------------||-------9---9--------------|-----------9p7-------------||--------------------------|---------------7-9p7----7~-||--------------------------|---------------------10----|PM _______________ __
Verse
e------------------------------|------------------------------|b----------------------------3-|------------------------------|g-2------2------2----2-------2-|-2------2------2----2---------|d-2------2------2----2-------0-|-2------2------2----2-------2-|a-0------0------0----0---------|-0------0------0----0-------2-|E----3b-----3b----3b---5b5.5---|----3b-----3b----3b---5b5.5-0-|
|------------------------------|------------------------------||----------------------------3-|---4b5r-2---------------------||-2------2------2----2-------2-|-2-4b6r-2-------------7-9\----||-2------2------2----2-------0-|--------0-4p2---------7-9\----||-0------0------0----0---------|--------------2h4p2---5-7\----||----3b-----3b----3b---5b5.5---|--------------------3---------|
|------------------------------|------------------------------||----------------------------3-|------------------------------||-2------2------2----2-------2-|-2------2------2----2---------||-2------2------2----2-------0-|-2------2------2----2-------2-||-0------0------0----0---------|-0------0------0----0-------2-||----3b-----3b----3b---5b5.5---|----3b-----3b----3b---5b5.5-0-|
|------------------------------|------------------------------||----------------------------3-|---4b5r-2---------------------||-2------2------2----2-------2-|-2-4b6r-2-------------2~~~~~~~||-2------2------2----2-------0-|--------0-4p2-----------------||-0------0------0----0---------|--------------2h4p2-----------||----3b-----3b----3b---5b5.5---|--------------------3---------|
|------------------------------|------------------------------||------------------------------|------------------------------|
|~~~~~~~~~~~~~~~~~~~~~~~~~~~~~~|~~~~~~~~~~~~~~~~~~~~~~~~~~~~~~||------------------------------|------------------------------||------------------------------|------------------------------||------------------------------|------------------------------|
Bridge
e--------------------------|--------------------------|b--------------------------|--------------------------|g-6b6.5---6---6--6-6--6-9~-|-6b6.5---6---6--6-6--6----|d-------9---9--------------|-------9---9-----------7~-|a--------------------------|--------------------------|E--------------------------|--------------------------|PM _______________ _______________
|--------------------------|---------------------------||--------------------------|---------------------------||-6b6.5---6---6--6-6--6-9~-|-9-9b11r-7-----------------||-------9---9--------------|-----------9p7-------------||--------------------------|---------------7-9p7----7~-||--------------------------|---------------------10----|PM _______________ __
|--------------------------|--------------------------||--------------------------|--------------------------||-6b6.5---6---6--6-6--6-9~-|-6b6.5---6---6--6-6--6----||-------9---9--------------|-------9---9-----------7~-||--------------------------|--------------------------||--------------------------|--------------------------|PM _______________ _______________
|--------------------------|----------------------------------------|--------------------------|-12-15b17-pb17-12-----------------------|-6b6.5---6---6--6-6--6-9~-|------------------14h16p14--------------|-------9---9--------------|---------------------------16p14----14~-|--------------------------|---------------------------------16-----|--------------------------|----------------------------------------
Solo
e--------------------------------------------------------------------------b-------------------------15b15.5--------------------------8---8-----------g-14-16p14-------10-12-14---------16-14p12-------12~-5-7/9---9---9/7-7---7-d----------16p14---------------------------14b15-----------------------9---a--------------------------------------------------------------------------E--------------------------------------------------------------------------
-10----------------------------------------------------------------------------10b12r---------3---------------------------------------------------------------------7h9~-/4---4-2-------2~-2/5h7------------6b7--------6b7------6b7-----------------------------4-2------------7-5------------9-7-9~-----7-7~-----7p5-----------------------------4--------------5-7-7~-----------------------------7-------------------------------------------------------------------------------
----------------------------------------------------|-----------------------17-18-19-20-22b24~-----------|----------------17=/19------------------------------|------------------------------------------x<~~~~~~~~|-6-5--------------------------------------x<~~~~~~~~|-----8=p5~------------------------------------------|
Outro
e--------------------------|--------------------------|b--------------------------|--------------------------|g-6b6.5---6---6--6-6--6-9~-|-6b6.5---6---6--6-6--6----|d-------9---9--------------|-------9---9-----------7~-|a--------------------------|--------------------------|E--------------------------|--------------------------|PM _______________ _______________
|--------------------------|-------------------||--------------------------|-------------------||-6b6.5---6---6--6-6--6-9~-|-9-9b11r-7-----2-4-||-------9---9--------------|-----------9p7-2-4-||--------------------------|---------------0-2-||--------------------------|-------------------|PM _______________
Please rate this tab:
x1.0