Misc Unsigned Bands - I Redeemer - The Conductor tab

Pretty simple, just listen to the track, you'll get it.
It's going to be a lot slower now, than it is on the recording.
myspace.com/iredeemer

If the tab is hard to read, blame Dickerson, he fucked it up.
haha


|------------------------------------------||------------------------------------------||---------8--------------------------------| x 4|---------7--------------------------------||---------6--------------------------------||-6p0-6p0-----0-0--6p0-6p0--0-0--5p0--3p0--|pm . .
|-------------------------------------||-------------------------------------||---------8888-----------------8--8---| x 4|---------7777-----------------7--7---||---------6666-----------------6--6---||-6p0-6p0------------6p0-6p0--------- |
|------------------------||------------------------||---------888888888888---| x 4|---------777777777777---||---------666666666666---||-6p0-6p0----------------|
|------------------------||------------------------||---------------888888---| x 4|-0~~~~~~~~~----777777---||-0~~~~~~~~~----666666---||-0~~~~~~~~~-------------|
|------------------------||------------------------||------------------------| |-0~~~~~~~~~-------------| let ring for a while|-0~~~~~~~~~-------------||-0~~~~~~~~~-------------|
|---------------------------------||---------------------------------||--------------8-8----------------| x 4|---------7------7----------------||---6---6---6----6----------------||---------------------------------|
|------------------------| |--------||------------------------| 1st |--------||--------------8-8-------| and |--------| x 4|---------7------7-------| 3rd |000-000-||---6---6---6----6-------| à |000-000-||------------------------| |000-000-|pm ... ...
|----------------------------------||----------------------------------||---------8888--------------8--8---| x 4|-000-000-7777------000-000-7--7---||-000-000-6666------000-000-6--6---||-000-000-----------000-000--------|pm... ... ... ...
|------------------------||------------------------||---------888888888888---| x 4|-000-000-777777777777---||-000-000-666666666666---||-000-000----------------|pm... ...
|------------------------||------------------------||------------------------| x 4|-0~~~--3~~~---3*--------||-0~~~--3~~~---3*--------||-0~~~--3~~~---3*--------|
|------------------------------------------||------------------------------------------||---------8--------------------------------| x 4|---------7--------------------------------||---------6--------------------------------||-6p0-6p0-----0-0--6p0-6p0--0-0--5p0--3p0--|pm . .
|------------------------||------------------------||---------888888888888---| x 4|---------777777777777---||---------666666666666---||-6p0-6p0----------------|
|----------------------------------||----------------------------------||----------------------------------| x 4|-000-000-000-000-000-000-1--------||-000-000-000-000-000-000-1--------||-000-000-000-000-000-000-1--------|pm... ... ... ... ... ...
|----------------------------------||----------------------------------||----------------------------------| x 4|-000-000-000-000-000-000-1--------||-000-000-000-000-000-000-1--------||-111-111-111-111-111-111-1--------|pm... ... ... ... ... ...
Tap to rate this tab
 
# A B C D E F G H I J K L M N O P Q R S T U V W X Y Z