Misc Unsigned Bands - I Redeemer - Addictionary tab

Again, simple.
Again, if these tabs suck, blame Dickerson, he tabbed them
hahaha


|----------------||----------------||-33333-33333----| |-22222-22222-0--||-11111-11111-0--||-------------0--|pm .
|------------------------------------------||------------------------------------------||-33333-33333------------------------------| x 4|-22222-22222------------------------------||-11111-11111------------------------------||-------------2p0-2p0----last time-2p0-5p0-|
they are 10’s and 11’s|------------------------------------------||------------------------------------------||-33333-33333---11111111-------------------| x 4|-22222-22222---10101010-------------------||-11111-11111---9999-----------------------||------------------------------------------|
|----------------||----------------||-33333-33333----| x4 |-22222-22222----||-11111-11111----||----------------|
|-------------------------------------------||-------------------------------------------||-----------3-3-------------3---------------| x 4|-00000000--2-2---00000000--2---------------||-00000000--1-1---00000000--1---------------||-00000000--------00000000------------------|pm........ ........
|-------------------------------------------||-------------------------------------------||-----------5---------------5---------------| x 4|-00000000--4-----00000000--4---------------||-00000000--3-----00000000--3---------------||-00000000--------00000000------------------|pm........ ........
|-----------------||-----------------||-----------5---5-| x 4|-0~~~-0-0--4-0-4-||-0~~~-0-0--3-0-3-||-0~~~-0-0----0---|pm . . .
|-----------------||-----------------||-----------7---7-| x 4|-0~~~-0-0--6-0-6-||-0~~~-0-0--5-0-5-||-0~~~-0-0----0---|pm . . .
|------------------------||------------------------||------------------------| |-0----0------0~~~~~~---0||-0----0------0~~~~~~---0||-0----0------0~~~~~~---0|
1st guitar|----------------------------------||----------------------------------||----------------------------------| x 4|----------------------------------||----------------------------------||-00000000000000003500005700005301-|
2nd guitar after 2nd time|-----------||-----------||-----------| |-0~~~~~~---||-0~~~~~~---||-0~~~~~~---|
after 3rd time|----------------------------------||----------------------------------||----------------------------------| |-0~~~~~~--------------------------||-0~~~~~~--------------------------||-0~~~~~~----------777-555-333-111-|pm ... ... ... ...
both guitars|---------------------------| /|---------------------------| /|---------------------------| x 4 ..|---------------------------| .. |---------------------------| ..
|300000350057001000035005700| /repeat all twice|-----------------------------| ..|-----------------------------| /|-----------------------------| x 4 /|3----------------1-----------| /|3----------------1-----------| ..|3------3p5--5p7--1---3p5--5p7| ..
|----------------||----------------||-33333-33333----| |-22222-22222-0--||-11111-11111-0--||-------------0--|pm .
|------------------------------------------||------------------------------------------||-33333-33333------------------------------| x 4|-22222-22222------------------------------||-11111-11111------------------------------||-------------2p0-2p0----last time-2p0-5p0-|
sped up from first time|------------------------------------------||------------------------------------------||-33333-33333---11111111-------------------| x 4|-22222-22222---10101010-------------------||-11111-11111---9999-----------------------||------------------------------------------|
1st guitar|---------------------||---------------------||---------------------| x 4|-0~~~------------000-||-0~~~------------000-||-0~~~---0-0-2p0--000-|pm ...
both|-----------------||-----------------||-----------------| x 8|----------000-000||----------000-000||-0-0-2p0--000-000|pm ... ...
|---------------||---------------||---------------| x 8|-----------000-||-----------000-||--0-0-2p0--000-|pm ...
Tap to rate this tab
 
# A B C D E F G H I J K L M N O P Q R S T U V W X Y Z