Misc Unsigned Bands - Et Cetera - Warmup tab

                                                                       Et Cetera
Track 3
:D

E||--------------------------|--------------------------|B||--------------------------|--------------------------|G||--------------------------|--------------------------|D||--------------------------|--------------------------|A||--------------------------|--------------------------|E||--8--8--8--8--8--8--8--8--|--8--8--8--8--8--8--8--8--|
-----------------------------|-----------------------------|-----------------------------|-----------------------------|-----------------------------|-----------------------------|-----------------------------|-----------------------------|---------7--8--10--8--7------|---------7--8--10--8--7------|--8--10------------------10--|--8--10------------------10--|
-----------------------------|-----------------------------|-----------------------------|-----------------------------|-----------------------------|--7--------------------------|-------------------7--9--10--|-----10--9--7------7--9--10--|---------7--8--10------------|---------------10------------|--8--10----------------------|-----------------------------|
-----------------------------|-----------------------------|-----------------------------|-----------------------------|--7--------------------------|--7--------------------------|-----10--9--7------7--9--10--|-----10--9--7----------------|---------------10------------|---------------10--8--7------|-----------------------------|-------------------------10--|
-----------------------------|-----------------------------|-----------------------------|-----------------------------|-----------------------------|--7--------------------------|-------------------7--9--10--|-----10--9--7----------------|---------7--8--10------------|---------------10--8--7------|--8--10----------------------|-------------------------10--|
-----------------------------|-----------------------------|-----------------------------|-----------------------------|-----------------------------|-----------------------------|-------10------------------7-|--10--9--7-------------------|--------------------7-8-10---|------------10--8--7---------|--8----------8--10-----------|----------------------10--8--|
----------------------------|-----------------------------|----------------------------|-----------------------------|----------------------------|-----------------------------|----------------------7--9--|--10--9--7-------------------|------------7--8--10--------|------------10--8--7---------|--7--8--10------------------|----------------------10--8--|
----------------------------|------------------------|----------------------------|------------------------|----------------------------|------------------------|----------------------7--9--|--10--------------------|------------7--8--10--------|--------10----7---------|--7--8--10------------------|-------------------8----|
-----------------------------|-----------------------------|-----------------------------|-----------------------------|-----------------------------|-----------------------------|-----------------------------|--------------------------7--|-----------------------7--7--|--7--8--8--8--10--10--10-----|--8--8--8--10--10--10--------|-----------------------------|
-----------------------------|----------------------------|-----------------------------|----------------------------|-----------------------------|----------------------------|--7--7--9--9--9--10--10--10--|--10--10--9--9--8--8--7--7--|-----------------------------|----------------------------|-----------------------------|----------------------------|
------------------------------|------------------------------|------------------------------|------------------------------|------------------------------|------------------------------|------------------------------|------------------------------|--11--11--10--10--9--9--8--8--|--7--7------------------------|------------------------------|--------11--11--10--10--9--9--|
-----------------------------|----------------------------|-----------------------------|----------------------------|-----------------------------|----------------------------|-----------------------------|------7--8--9--10--9--8--7--|----------------7--8--9--10--|--11------------------------|--8--9--10--11---------------|----------------------------|
------------------------------|--------------------|------------------------------|--------------------|------------------------------|--------------------|------------------------------|--10----------------|--11--10--9--8--7-------------|--10----------------|-------------------11--10--9--|---8----------------|
Every time it repeats, move all of these following up one, and so on until you get to 15 the beginning. This takes a long time, but it is a good warmup.
---------------------------------|--------------------------------------|---------------------------------|--------------------------------------|---------------------------------|--------------------------------------|---------------------------------|--------------------------------------|--4--(4)--(4)--(4)--4--(4)--(4)--(4)--|--4--(4)--4--(4)--4--4--4--4-----|---------------------------------|--------------------------------------|
--------------------------|--------------------------|--------------------------|--------------------------|--------------------------|--------------------------|--------3--4--6--4--3-----|--------3--4--6--4--3-----|--4--6-----------------6--|--4--6-----------------6--|--------------------------|--------------------------|
--------------------------|--------------------------|--------------------------|--4-----------------------|-----------------3--5--6--|-----6--5--3-----3--5--6--|--------3--4--6-----------|--------------6-----------|--4--6--------------------|--------------------------|--------------------------|--------------------------|
--------------------------|--------------------------|--4-----------------------|--4-----------------------|-----6--5--3-----3--5--6--|-----6--5--3--------------|--------------6-----------|--------------6--4--3-----|--------------------------|-----------------------6--|--------------------------|--------------------------|
--------------------------|--------------------------|---------------------|--------------------------|--4-----------------------|---------------------|-----------------3--5--6--|-----6--5--3--------------|-------6-------------|--------3--4--6-----------|--------------6--4--3-----|---------------------|--4--6--------------------|-----------------------6--|--4---------4--------|--------------------------|--------------------------|---------------------|
--------------------------|--------------------------|--------------------------|--------------------------|--6--5--3-----------------|--------------------3--5--|-----------6--4--3--------|-----------3--4--6--------|--------------------6--4--|--3--4--6-----------------|--------------------------|--------------------------|
--------------------------|--------------------------|----------------------|--------------------------|--------------------------|----------------------|--6--5--3-----------------|--------------------3--5--|--6-------------------|-----------6--4--3--------|-----------3--4--6--------|-------6----3---------|--------------------6--4--|--3--4--6-----------------|-----------------4----|--------------------------|--------------------------|----------------------|
--------------------------|--------------------------|--------------------------|--------------------------|--------------------------|-----------------------3--|--------------------3--3--|--3--4--4--4--6--6--6-----|--4--4--4--6--6--6--------|--------------------------|--------------------------|--------------------------|
--------------------------|--------------------------|--------------------------|--------------------------|--3--3--5--5--5--6--6--6--|--6--6--5--5--4--4--3--3--|--------------------------|--------------------------|--------------------------|--------------------------|--------------------------|--------------------------|
--------------------------|--------------------------|--------------------------|--------------------------|--------------------------|--------------------------|--7--7--6--6--5--5--4--4--|--3--3--------------------|--------------------------|--------7--7--6--6--5--5--|--------------------------|--------------------------|
--------------------------|--------------------------|--------------------------|--------------------------|--------------------------|-----3--4--5--6--5--4--3--|--------------3--4--5--6--|--7-----------------------|--4--5--6--7--------------|--------------------------|--------------------------|--------------------------|
--------------------------|-------------------|-----||--------------------------|-------------------|-----||--------------------------|--6----------------|-----||--7--6--5--4--3-----------|--6----------------|-----||-----------------7--6--5--|--4----------------|-----||--------------------------|-------------------|-----||
There ya have it! Duration Legend --------------- W - whole H - half Q - quarter E - 8th S - 16th T - 32nd X - 64th . - note dotted |-n-| - n-tuplets
Tap to rate this tab
 
# A B C D E F G H I J K L M N O P Q R S T U V W X Y Z