Misc Unsigned Bands – T-cophony - After Rain tab

-------------------------------------------------------------------------------
			     t-cophony - After Rain (solo)
-------------------------------------------------------------------------------
Tabbed by: taku
Email: yngwie_stratcaster@hotmail.com

Tuning:
                                                              
D||------------------------------0--|-----0h4--------------12------|A||------7h0---9h0--7------------0--|---------7h0-7h--0--5-12------|G||------------------------7/-6-----|----------------------12------|D||--0---7h0-4-9h4--7h-0-2----------|----------------------12------|A||--0h2------------0---------------|--------------------------0-0-|D||--0------------------------------|--5----------7------------0-0-|
--------------------------0--|-----0h4-7h0h7h--0-5h0-12------|--7h0---9h0--7------------0--|-----------------------12------|--------------------7/-6-----|---------7h0h7h--0-----12------|--7h0-4-9h4--7h-0-2----------|-----------------------12------|--2----------0---------------|---------------------------0-0-|-----------------------------|--5----------7-------------0-0-|
--------------------------0--|-----0h4--------------12------|--7h0---9h0--7------------0--|---------7h0-7h--0--5-12------|--------------------7/-6-----|----------------------12------|--7h0-4-9h4--7h-0-2----------|----------------------12------|--2----------0---------------|--------------------------0-0-|-----------------------------|--5----------7------------0-0-|
--------------------------0--|-----0h4-7h0h7h--0-5h0-12------|--7h0---9h0--7------------0--|-----------------------12------|--------------------7/-6-----|---------7h0h7h--0-----12------|--7h0-4-9h4--7h-0-2----------|-----------------------12------|--2----------0---------------|-------------------------------|-----------------------------|--5----------7-------------0h2-|
|----------12h0--9h--0h2h0-5h0-7h0-|--7h-0-4--------------12------||---12h0---------------------------|---------7h0-7h--0h-5-12------||*---------12h0--9-----------------|----------------------12------||*--12h0---------------------------|----------------------12------||--------2-------0-----------------|--5----------7----------------||----------------0-----------------|--5----------7------------0h2-|
---------12h0--9h--0h2h0-7h0-5h0-|--5h-0-4--------------12-------||--12h0---------------------------|---------7h0-7---0--5-12-------||---------12h0--9-----------------|----------------------12------*||--12h0---------------------------|----------------------12------*||-------2-------0-----------------|--5----------7-----------------||---------------0-----------------|--5----------7------------0h2--||
--5h-0-4--------------12-----||---------------------------0--|---------7h0-7---0--5-12-----||---7h0---9h0--7------------0--|----------------------12-----||*--------------------7/-6-----|----------------------12-----||*--7h0-4-9h4--7h-0-2----------|--5----------7------------0--||---2----------0---------------|--5----------7------------0--||------------------------------|
-----0h4--------------12------|-------------7------------0--|---------7h0-7h--0--5-12------|--7h0---9h0---------------0--|----------------------12------|-------------7------7/-6-----|----------------------12------|--7h0-4-9h4-----0-2----------|--------------------------0-0-|--2----------0---------------|--5----------7------------0-0-|-----------------------------|
-----0h4-7h0h7h--0-5h0-12-------||-------4h7h4h5h7h4---------------|-----------------------12-------||-------------------5h7h0h5h7h4h5-|---------7h0h7h--0-----12------*||-----0---------------------------|--0--------------------12------*||---------------------------------|---------------------------0-0--||---------------------------------|--5----------7-------------0-0--||--5------------------------------|
--9h0h4h7h4h0h7h0--------12----|--7h0---5h0--5h--0----12------|------------------7/-4h5-12----|--------5h0--5h--0----12------|-------------------------12----|--7h0-2---------------12------|-------------------------12----|-------------------4--12------|-------------------------------|-------------5------------0-0-|-------------------------------|--4----------5------------0-0-|
-------------4h--0----12------|--7h0---5h0--5h--0----12------|--2h0---4h0-----------12------|--------5h0--5h--0----12------|-------------4h--0----12------|--7h0-2---------------12------|--2h0-5-4h0--------7--12------|-------------------4--12------|-------------9------------0-0-|-------------5------------0-0-|--7----------9------------0-0-|--4----------5------------0-0-|
--------4h0--4h--0----12------|--7h0---5h0--5h--0----12------|--2h0-----------------12------|--------5h0--5h--0----12------|--------4h0--4h--0----12------|--7h0-2---------------12------|--2h0-5------------7--12------|-------------------4--12------|-------------9------------0-0-|-------------5------------0-0-|--7----------9------------0-0-|--4----------5------------0-0-|
--2h0---4h0--4h--0----12------|--7h0---5h0--5h--0----12------|----------------------12------|--------5h0--5h--0----12------|--2h0---4h0--4h--0----12------|--7h0-2---------------12------|------5------------7--12------|-------------------4--12------|-------------9------------0-0-|-------------5------------0-0-|--7----------9------------0-0-|--4----------5------------0-0-|
--2h0---4h0--4h--0----12------|--0----------------0----|----------------------12------|--0----------------0----|--2h0---4h0--4h--0----12------|--0----------------0----|------5------------7--12------|--5----------------0----|-------------9------------0-0-|--5----------------0----|--7----------9------------0-0-|--5----------x-x-x-0----|
|---------------------------0--|-----0h4--------------12------||---7h0---9h0--7------------0--|---------7h0-7h--0--5-12------||*--------------------7/-6-----|----------------------12------||*--7h0-4-9h4--7h-0-2----------|----------------------12------||---2----------0---------------|--------------------------0-0-||------------------------------|--5----------7------------0-0-|
-------------7------------0--|-----0h4-7h0h7h--0-5h0-12-------||--7h0---9h0---------------0--|-----------------------12-------||-------------7------7/-6-----|---------7h0h7h--0-----12------*||--7h0-4-9h4-----0-2----------|-----------------------12------*||--2----------0---------------|---------------------------0-0--||-----------------------------|--5----------7-------------0-0--||
-------4h7h4h5h7h4---------------|--9h0h4h7h4---------------12----|-------------------5h7h0h5h7h4h5-|------------5h7h0-4h7h4h5-12----|-----0---------------------------|--------------------------12----|---------------------------------|--------------------------12----|---------------------------------|--------------------------------|--5------------------------------|--------------------------------|
------------------||------------------||------------------||------------------||------------------||------------------||
Please rate this tab:
x1.0