Misc Unsigned Bands - From The Shallows - Chalice Of Mankind tab

Artist - From The Shallows
Song - Chalice Of Mankind
Album - Beyond The Unknown

Tabbed by: Deathmetal080
Email: kit_su_ne666@hotmail.com

Tuning: Drop A#
 __________________________
|                          |
|Key: " - Tremolo          |
|     . - Palm Muting      |
|     ~ - Let Note Ring    |
|__________________________|

Feel free to post a comment and rate it. 
Don't bitch just around if you see any mistakes. 
Tell me if you find one! Haven't tabbed the solo. Sorry.

Listen to the song, then you know how much you have to play a riff!

Riff 1

|-------------------------------------------------||-------------------------------------------------||-------------------------------------------------||-------------------------------------------------||-------5-7-8----------------------5-7-8---5---4--||-0-0-0-------0-0-0-000-0-0--0-0-0-------8---7----| . . . . . . ... . . . . . " " " "
|-------------------------------------------------||-------------------------------------------------||-------------------------------------------------||-------------------------------------------------||-------5-7-8----------------------5-7-8---5---4--||-0-0-0-------0-0-0-000-0-0--0-0-0-------8---7----|| . . . . . . ... . . . . . " " " "
|
|-------------------------------------------------||-------------------------------------------------||-------------------------------------------------||-------3-5-7----------------------3-5-7----------||------------------------------------------5---4--||-0-0-0-------0-0-0-000-0-0--0-0-0-------8---7----| . . . . . . ... . . . . . " " " "
Riff 2
|----------------------------------------------------------------------||----------------------------------------------------------------------||----------------------------------------------------------------------||----------------------------------------------------------------------||-0-0-0---0-0-0-0-0-0-0-0-0---0-0-0-0-0-0-0-0-0---0-0-0-0-0-0----5---4-||-0-0-0---0-0-0-0-0-0-0-0-0---0-0-0-0-0-0-0-0-0---0-0-0-0-0-0--8---7---| . . . . . . . . . . . . . . . . . . . . . . . . . . . " " " "
Riff 3
|----------------------------------------------------||----------------------------------------------------||----------------------------------------------------||----------------------------------------------------||-5---5---5---5---8---7---4---4---4---4-------5---4--||---0---0---0---0---0---0---0---0---0---0---0---0----| . . . . . . . . . . " " " "
|----------------------------------------------------||----------------------------------------------------||----------------------------------------------------||----------------------------------------------------||-5---5---5---5---8---7---4---4---4---4-------5---4--||---0---0---0---0---0---0---0---0---0---0---0---0----|| . . . . . . . . . . " " " "
|
|----------------------------------------------------||----------------------------------------------------||----------------------------------------------------||-3---3---3---3---7---5---2---2---2---2--------------||---------------------------------------------5---4--||---0---0---0---0---0---0---0---0---0---0---0---0----| . . . . . . . . . . " " " "
Riff 4 Whole Riff Tremolo Picked
|-------------------------------------||-------------------------------------||-------------------------------------||---------7---------------------------||-5---5-8---8-7-5---8-7-5----12-10-8--||---7-------------8-------10----------| " " " " " " " " " " " " " " " "
Then Riff 3 x2 Riff 5
|-------------------|--------------------||-------------------|--------------------||-------------------|--------------------||-------------------|--------------------||--5----------------|--4--------8--------||-------------------|--------------------| ~ ~ ~
Let the notes ring and play it 4 times again tremolo picked Riff 6
|------------------------------|---------------------------||------------------------------|---------------------------||------------------------------|---------------------------||------------------------------|---------------------------||-0---------0-0-0--0-0-0-0-0-0-|-0-------------------------||-0---------0-0-0--0-0-0-0-0-0-|-0-------------------------| . . . . . . . . . . .
Riff 7 Breakdown
|------------------------------------------||------------------------------------------||------------------------------------------||------------------------------------------||-0---------0-0-0-0-0--0--0-0-0-0-0-0-0-0--||-0---------0-0-0-0-0--0--0-0-0-0-0-0-0-0--| . . . . . . . . . . . . . . .
|----------------------------------||----------------------------------||----------------------------------||----------------------------------||-0---------0-0-0-0-0--0-0--0-0----||-0---------0-0-0-0-0--0-0--0-0----| . . . . . . . . . .
Riff 8
|----------------||----------------||----------------||-0-----------0--||-0-----------0--||-0-----------0--|
Let the note ring and stop Riff 9
|------------------------------------------------------------------------||------------------------------------------------------------------------||------------------------------------------------------------------------||------------------------------------------------------------------------||-8-----8-----8-----8-----8-----8-----8-----10-10-10-7-----7-----7-----7-||---0-0---0-0---0-0---0-0---0-0---0-0---0-0------------0-0---0-0---0-0---| . . . . . . . . . . . . . . . . . . . .
|-----------||-----------||-----------||-----------||---5---4---||-8---7-----| " " " "
|------------------------------------------------------------------------||------------------------------------------------------------------------||------------------------------------------------------------------------||------------------------------------------------------------------------||-8-----8-----8-----8-----8-----8-----8-----10-10-10-7-----7-----7-----7-||---0-0---0-0---0-0---0-0---0-0---0-0---0-0------------0-0---0-0---0-0---|| . . . . . . . . . . . . . . . . . . . .
|
|------------------------------------------------------------------------||------------------------------------------------------------------------||------------------------------------------------------------------------||-7-----7-----7-----7-----7-----7-----7-----8--8--8--5-----5-----5-----5-||------------------------------------------------------------------------||---0-0---0-0---0-0---0-0---0-0---0-0---0-0------------0-0---0-0---0-0---| . . . . . . . . . . . . . . . . . . . .
|-----------||-----------||-----------||-----------||---5---4---||-8---7-----| " " " "
Then Play Riff 2 again till the end
|----------------------------------------------------------------------||----------------------------------------------------------------------||----------------------------------------------------------------------||----------------------------------------------------------------------||-0-0-0---0-0-0-0-0-0-0-0-0---0-0-0-0-0-0-0-0-0---0-0-0-0-0-0----5---4-||-0-0-0---0-0-0-0-0-0-0-0-0---0-0-0-0-0-0-0-0-0---0-0-0-0-0-0--8---7---| . . . . . . . . . . . . . . . . . . . . . . . . . . . " " " "
That's it.
Tap to rate this tab
 
# A B C D E F G H I J K L M N O P Q R S T U V W X Y Z