Misc Unsigned Bands – Nu-heretic - Suffer Next tab

Nu-Heretic - Suffer Next...SCAPEGOAT
Written by James Brien Hobbs

Members
Charlie Smith - Bass/Backing Vocals
Sean Camp - Lead Guitar
James Hobbs - Rythem Guitar/Vocals

Drop A tuning

Intro x3 & 1|-------------------------------|---||-------------------------------|---||-------------------------------|---||-5-5--4-4----------------------|---||-5-5--4-4----------------------|---||-3-3--2-2--1--0--1--0--1-0-1-0-|-3-| *
|--------------------------||--------------------------||--------------------------||-5-5--4-4--5-5--4-4--7--7-||-5-5--4-4--5-5--4-4--7--7-||-3-3--2-2--3-3--2-2--5--5-|
Let it fade|------||------||------||-2----||-2----||-0----|
Verse 1|--------------||--------------||--------------||-2------------||-2------------||-0----3--2--5-|
|---|------------||---|------------||---|------------||---|------------||---|------------||-0-|-3--2--5--0-| ....Trem....
Chorus 1 x3 & 1|-------------------------------|---||-------------------------------|---||-------------------------------|---||-5-5--4-4----------------------|---||-5-5--4-4----------------------|---||-3-3--2-2--1--0--1--0--1-0-1-0-|-3-| "SUFFER!!!" *
---|----|----|----|---|----|----|----|-9-|-11-|-12-|-14-|-x-|-x--|-x--|-x--|-7-|-9--|-10-|-12-|---|----|----|----|"Suffer Next"
|--------------------------||--------------------------||--------------------------||-5-5--4-4--5-5--4-4--7--7-||-5-5--4-4--5-5--4-4--7--7-||-3-3--2-2--3-3--2-2--5--5-|
|--------------------------||--------------------------||--------------------------||-5-5--4-4--5-5--4-4--2--2-||-5-5--4-4--5-5--4-4--2--2-||-3-3--2-2--3-3--2-2--0--0-|
Verse 2|--------------||--------------||--------------||-2------------||-2------------||-0----3--2--5-|
|---|------------||---|------------||---|------------||---|------------||---|------------||-0-|-3--2--5--0-| ....Trem....
Chorus 2 x3 & 1|-------------------------------|---||-------------------------------|---||-------------------------------|---||-5-5--4-4----------------------|---||-5-5--4-4----------------------|---||-3-3--2-2--1--0--1--0--1-0-1-0-|-3-| "SUFFER!!!" *
|---|----|----|----||---|----|----|----||-9-|-11-|-12-|-14-||-x-|-x--|-x--|-x--||-7-|-9--|-10-|-12-||---|----|----|----| "Suffer Next"
|--------------------------||--------------------------||--------------------------||-5-5--4-4--5-5--4-4--7--7-||-5-5--4-4--5-5--4-4--7--7-||-3-3--2-2--3-3--2-2--5--5-|
|--------------------------||--------------------------||--------------------------||-5-5--4-4--5-5--4-4--2--2-||-5-5--4-4--5-5--4-4--2--2-||-3-3--2-2--3-3--2-2--0--0-|
Interlude|------------------------||------------------------||------------------------||-2-2--5-5-5--2-2--4-4-4-||-2-2--5-5-5--2-2--4-4-4-||-0-0--3-3-3--0-0--2-2-2-| b b b b b b
|-----------------------------------------||-----------------------------------------||-----------------------------------------||-5-5--4-4--5-5--4-4--3-3-3-3-3-3-3-3-3-3-||-5-5--4-4--5-5--4-4--3-3-3-3-3-3-3-3-3-3-||-3-3--2-2--3-3--2-2--1-1-1-1-1-1-1-1-1-1-| .........PM.........
|-------------------||-------------------||-------------------||-5-5--4-4--3-3-3-3-||-5-5--4-4--3-3-3-3-||-3-3--2-2--1-1-1-1-| ...PM...
|---|----|----|----||---|----|----|----||-9-|-11-|-12-|-14-||-x-|-x--|-x--|-x--||-7-|-9--|-10-|-12-||---|----|----|----|
Chorus 3 x3 & 1|-------------------------------|---||-------------------------------|---||-------------------------------|---||-5-5--4-4----------------------|---||-5-5--4-4----------------------|---||-3-3--2-2--1--0--1--0--1-0-1-0-|-3-| "SUFFER!!!" *
|---|----|----|----||---|----|----|----||-9-|-11-|-12-|-14-||-x-|-x--|-x--|-x--||-7-|-9--|-10-|-12-||---|----|----|----| "Suffer Next"
|--------------------------||--------------------------||--------------------------||-5-5--4-4--5-5--4-4--7--7-||-5-5--4-4--5-5--4-4--7--7-||-3-3--2-2--3-3--2-2--5--5-|
|--------------------------||--------------------------||--------------------------||-5-5--4-4--5-5--4-4--2--2-||-5-5--4-4--5-5--4-4--2--2-||-3-3--2-2--3-3--2-2--0--0-|
|-----------------||-----------------||-----------------||-5--4--7--4----4-||-5--4--7--4----4-||-3--2--5--2----2-|
* = Harmonic b = Bend PM = Palm mute Trem = Tremulo picking This is a first draft for the song It's NOT the finishing product as of yet
Please rate this tab:
x1.0