Misc Unsigned Bands – Dillon Green - Forever Interlude tab

Dreaming (Forever Interlude)
Dillon Green

http://www.myspace.com/donotbeafoo

This is the tab for Forever Interlude, which is the first part of the song Dreaming.
This is exactly how I play it, and I'm the one who wrote the song, so these tabs are correct.
In some places, there's only one possible way to finger the notes, and you're just gonna 
to figure that out on your own.

-------7--8-----7--8--7-----------5-----3--5--3-----------|----6--------5--------------5-----------------------1-----|-7-----------------------5-----5-----5-----------0-----0--|----------7-----------5-----------3-----------2-----------|----------------------------------------------------------|----------------------------------------------------------|
-1-----0--1--0--------------------5------3----------------|----1--------------1-----3-----3-------5------------------|----------------0-----0-----2---------4-------------------|-3-----------2-----------0-----------2--------------------|----------------------------------------------------------|----------------------------------------------------------|
-8-----7--8--7-----------5-----3--5--3------------|----5--------------5-----------------------1------|----------------5-----5-----5-----------0-----0---|-7-----------5-----------3-----------2------------|--------------------------------------------------|--------------------------------------------------|
-1-----0--1--0--------------------1-----------------------|----1--------------1-----3-----3-------5------------------|----------------0-----0-----2---------4-------------------|-3-----------2-----------0-----------2--------------------|----------------------------------------------------------|----------------------------------------------------------|
----------5------3----5-----5/8--5------------------------|-3-----3-------5------3-----3----4------------------------|----2---------4-------2----------5------------------------|-0-----------2--------3--3--------------------------------|----------------------------------------------------------|----------------------------------------------------------|
-5-----5/8--8/10-----10--7--------------------------------|-3-----3----6/8------8------------6--5--------------------|-2----------7/9------9---------4--------7--4--5-----------|-3--3----------------10-----6-----------------------------|----------------------------------------------------------|-------------------8-----0--------------------------------|
-10--------8--8/10-10/12-12\10-10\8--7--------------------|--------8-------------------------------8-----8-----------|-----9-------------------------------------9--------------|-0--------------------------------------------------------|----------------------------------------------------------|-------------------------------------0--------------------|
-7--8--10--8--10-----------8--10--10/12--10----------------------|------------------7-----7--------------------12--------------12--|---------------------7---------------------------12------12------|--------------0--------------------------------------14----------|-----------------------------------------------------------------|---------------------------------------------0-------------------|
-12--13--15--17----------17--18--17--15--13--15------------------|---------------------17------------------------------15----------|-----------------17------------------------------15--------------|-------------15------------------------------13------------------|-----------------------------------------------------------------|-----------------------------------------------------------------|
-15--16--15--13--11--10---------8--10--11--10------15------------|-----------------------------8-----------------13----------13----|-------------------------10----------------------------12--------|---------------------8-----------------------------14------------|-----------------------------------------------------------------|-----------------------------------------------------------------|
-12--13--15--15/17--15--17----------17--18--17--15--13-----------|--------------------------------17-------------------------------|----------------------------17-----------------------------------|------------------------15---------------------------------------|-----------------------------------------------------------------|-----------------------------------------------------------------|
-15----------15--16--15--13--11--10---------11--10--8------------|---------15------------------------------8-------------11--9-----|-----15------------------------------10--------------------------|-13------------------------------8-------------------------------|-----------------------------------------------------------------|-----------------------------------------------------------------|
-8--------8--9--8--6--4--3-----------3---------------------------|-------8--------------------------3-----3------------------------|----8--------------------------4-----------4---------------------|-6--------------------------5-----------------5/-----------------|-----------------------------------------------------------------|-------------------------3---------------------------------------|
-8---------8--12--10--8--7--5--------5--8--7--5------------------|--------8-------------------------5--------------8--6------------|-----9-------------------------5--------------------------5------|-10-------------------------7--------------------------7---------|----------------------------------------------------8------------|-----------------------------------------------------------------|
-------5--7--8--10--------------10-------------------------------|-6--8-----------------------13------13-----------------12-~------|------------------------10--------------10-----------10---~------|--------------------12----------------------12-----12-----~------|----------------10-------------------------------10-------~------|-----------------------------------------------------------------|
-----------------------------------------------------------|-------12--13--~-----Donotbeafoo---------------------------|-----12--------~-------------------------------------------|---12----------~-------------------------------------------|-15------------~-------------------------------------------|-----------------------------------------------------------|
Please rate this tab:
x1.0