Misc Unsigned Bands - Nu-heretic - Striiike tab

Nu-Heretic - Striiike!

Charlie Smith - Bass/Backing Vocals
Sean Camp - Lead Guiter
James Hobbs - Vocals/Rythem Guitar

Bass comes in with

|-------------|-------------||-------------|-------------||-------------|-------------||-1-0-1-0-1-0-|-1-0-1-0-1-0-|
Guitar comes in (pinch) and turn volume from 0 to full
|--15---||-------||-------||-------||-------||-------|
Drums will then go to the same beat as th bass Guitar two then hits
|---------||---------||---------||-3--3--3-||-3--3--3-||-3--3--3-| * * *
The Chorus riff comes in
|----------|-------------------------| x4|----------|-------------------------||----------|-------------------------||----------|-------------------------||----------|-------------------------||--12/0----|-1-0--1-0--3-0--1-0--1-0-|
Then palm mute
|---------------------| x4|---------------------||---------------------||---------------------||---------------------||-1-0-1-0-3-0-1-0-1-0-|
Then start beggining verse before vocals
|-----------------| x4|-----------------||-----------------||-----------------||-----------------||-1-0-3-0-1-0-3-0-|
Then palm mute
|-----------------| x6|-----------------||-----------------||-----------------||-----------------||-1-0-3-0-1-0-3-0-|
|-----------------0-| x3|-----------------4-||-------------------||-------------------||-------------------||-1-0-3-0-1-0-3-0---|
|-----------------| x2|-----------------||-----------------||-----------------||-----------------||-1-0-3-0-1-0-3-0-|
Then the chorus
|----------|-------------------------| x4|----------|-------------------------||----------|-------------------------||----------|-------------------------||----------|-------------------------||--12/0----|-1-0--1-0--3-0--1-0--1-0-|
Palm mute straight away goin back into the verse
|-----------------| x6|-----------------||-----------------||-----------------||-----------------||-1-0-3-0-1-0-3-0-|
|-----------------0-| x3|-----------------4-||-------------------||-------------------||-------------------||-1-0-3-0-1-0-3-0---|
|-----------------| x2|-----------------||-----------------||-----------------||-----------------||-1-0-3-0-1-0-3-0-|
Pause for 1 second Then go into the chorus
|-------------------------| x3|-------------------------||-------------------------||-------------------------||-------------------------||-1-0--1-0--3-0--1-0--1-0-|
Then straight after three
|-------------| x2|-------------||-------------||-------------||-3-2-3-2-3-2-||-1-0-1-0-1-0-|
Then just the bass
|-----------------------------| x6|-----------------------------||-----------------------------||-1-0--1-0--1-0--1-0--1-0-1-0-|
Atfer bass line is repeated twice guitar one (pinch) and turn volume from 0 to full
|--15---||-------||-------||-------||-------||-------|
Guitar two (pinch) and turn volume from 0 to full
|-------||--15---||-------||-------||-------||-------|
Atfer bass line is repeated twice guitar four hits
|---------||---------||---------||-3--3--3-||-3--3--3-||-3--3--3-| * * *
Then both guitars hit
|-----------------------------| x4|-----------------------------||-----------------------------||-----------------------------||-----------------------------||-1-0--1-0--3-0--1-0--1-0-1-0-|
|--------------------------------| x2|--------------------------------||--------------------------------||--------------------------------||--------------------------------||-0h1--0h1--0hX(3)--1-0--1-0-1-0-|
Palm mute
|-------------||-------------||-------------||-------------||-3-2-3-2-3-2-||-1-0-1-0-1-0-|
This may or may not make it to the final cut!
Tap to rate this tab
 
# A B C D E F G H I J K L M N O P Q R S T U V W X Y Z