Misc Unsigned Bands - Shadows End - Dreamworld tab

I had the lyrics to this song then i went to print them and my computer crashed...so i 
add them to the home page the second im done with them

LEGEND~
.=palm mute
x=mute with right hand(only in our songs)
g=gallop(a technique that is basically galloping across the strings)
h=hammer on
p=pull off
/\=slide up or down
w=wammy bar used
w\/=wammy down, up or both
b=bend string
*=artificial harmonic(squeeling one)

intro|------------------------------||------------------------------||------------------------------||--------------------------5---|x4|--------------------------3---||x-x-x-x-x-x-x-x-x-x-x-x-x-----| . . . . . . . . . . . . .
|------------------------||------------------------||------------------------||--------------------5-5-||--------------------3-3-|x4|x-x-x-x-x-x-x-x-x-x-x-x-|
. . . . . . . . . . . .tempo speeds up|----------------||----------------||----------------||----5-5-----5-5-||----3-3-----3-3-||x-x-----x-x-----|
. . . .|------------||------------||------------||5---5---5/--||3---3---3/--||--x---x-----| . .verse 1
(repeat point)|--------|--|--------------||--------|--|--------------||--------|x3|--------------| both x2|7-7-7-7-|--|7-7*^-5*^-3*^-||5-5-5-5-|--|5-------------||--------|--|--------------|
. . . .verse 2|--------|--|--------------||--------|--|--------------||--------|x3|--------------||5-5-5-5-|--|5-5*^-3*^-2*^-|both x2|3-3-3-3-|--|3-------------||--------|--|--------------|
. . . .chorus|-------------------------||-------------------------||-------------------------|
|7w\/\/5w\/\/9w\/\/5w\/\/-| repeat from repeat point repeat once|5w\/\/3w\/\/7w\/\/3w\/\/-||-------------------------|
solo 1a2a3a4a note pattern for 2nd 53|--------/------------||-------/-------------||------/--------------||7---7/-slowly unmute-||5---5\---------------||------\--------------|
. . . . .|--------------------------------||--------------------------------||--------------------------------||7-7-9-9-10-10-12-12-14-14-15-15-||5-5-7-7--8--8-10-10-12-12-12-12-||--------------------------------|
. . . . . . . . . . . .|------------------------||------------------------||------------------------||15b12-15b12-15b12-15b12-|x2|------------------------||------------------------|
|--------------------------------------------------||--------------------------------------------------||--------------------------------------------------||15-15-14-14-12-12---------------------------------||------------------15-15-14-14-12-12---------------||------------------------------------15-15-14-14---|
all notes played in a 1a2a pattern 4 times each|------------------||------------------||------------------||------------------||------------------||12-14-15-17-19-21-|
|------------------------||------------------------||------------------------||------------------------||------------------------||21b17-21b17-21b17-21b17-|
|---------------------||---------------------||---------------------||21-21-19-19-17-17-15-||---------------------||---------------------|
this next part is complecated to tab tremelo pick while galloping|---------||---------||---------|
|15g14g12-|x8|---------||---------|
|------------------------------||------------------------------||------------------------------||12-12-14-14-15-15-17-17-19-19-||------------------------------||------------------------------|
|------------------------------||------------------17-17-19-19-||15-15-17-17-19-19-------------||------------------------------||------------------------------||------------------------------|
hold bend while playing 19s|15-15-17-17-19-19-19b---19~19~19~--19\3-||----------------------------------------||----------------------------------------||----------------------------------------||----------------------------------------||----------------------------------------|
|3p2p0-----------------------------||------3p2p0-----------------------||------------3p2p0-----------------||------------------3p2p0---------2-||----------------------3p2p0-----2-||--------------------------3p2p0-0-|
|--------|--|--------------||--------|--|--------------||--------|x3|--------------| both x2|7-7-7-7-|--|7-7*^-5*^-3*^-||5-5-5-5-|--|5-------------||--------|--|--------------|
. . . .|--------|--|--------------||--------|--|--------------||--------|x3|--------------||5-5-5-5-|--|5-5*^-3*^-2*^-|both x2|3-3-3-3-|--|3-------------||--------|--|--------------|
. . . .chorus|-------------------------||-------------------------||-------------------------|
|7w\/\/5w\/\/9w\/\/5w\/\/-|x4|5w\/\/3w\/\/7w\/\/3w\/\/-||-------------------------|
|------------------------------||------------------------------||------------------------------||--------------------------5---|x4|--------------------------3---||x-x-x-x-x-x-x-x-x-x-x-x-x-----| . . . . . . . . . . . . .
|----------------||----------------||----------------||------------5-5-||------------3-3-|x4|x-x-x-x-x-x-----|
. . . . . .tempo speeds up|----------------||----------------||----------------||----5-5-----5-5-||----3-3-----3-3-||x-x-----x-x-----|
. . . .|------------||------------||------------||5---5---5/--||3---3---3/--||--x---x-----| . .outro solo 2(group solo)
tremelo pick while galloping|---------||---------||---------|
|15g14g12-|x24|---------||---------|
|------------------------------------||------------------------------------||------------------------------------||--------------------------------5---||--------------------------------5---||x-x-x-x-x-x-x-x-3-3-3-3-3-3-3-3-3---| . . . . . . . . . . . . . .
Tap to rate this tab
 
# A B C D E F G H I J K L M N O P Q R S T U V W X Y Z