Misc Unsigned Bands – Nu-heretic - Young Martyr Pulls The Shortest Straw tab

Young Martyr Pulls The Shortest Straw

Guitar 2 T T T T T T|-12--8--5--12--8--5--12--8--12--8--5--12--8--5--12--8-||------------------------------------------------------||------------------------------------------------------||------------------------------------------------------||------------------------------------------------------||------------------------------------------------------|
T T T T T T|-13--8--5--13--8--5--13--8--13--8--5--13--8--5--13--8-||------------------------------------------------------||------------------------------------------------------||------------------------------------------------------||------------------------------------------------------||------------------------------------------------------|
Guitar 1|---|---|----|----------||---|---|----|----------||---|---|----|----------||-7-|-9-|-12-|-12/13/10-||-x-|-x-|-x--|-x--x--x--||-5-|-7-|-10-|-10/11/8--|
Both GuitarsVerse Riff Part 1 * * *|-------------------------------------------||-------------------------------------------||-------------------------------------------||-------------------------------------------||-------------------------------------------||-0-0-0-0-0-0-0-0-4b-0-0-0-0--0-0-4b-0-0-1b-|
* * *|-------------------------------------------||-------------------------------------------||-------------------------------------------||-----------------3b--------------3b-----3b-||-------------------------------------------||-0-0-0-0-0-0-0-0----0-0-0-0--0-0----0-0----|
Interlude|----------------------------------------||----------------------------------------||----------------------------------------||----------------------------------------||----------------------------------------||-0-0-0-0-0-0-0-0-3p2p0-0-0--3p2p0-3p2p0-|
|----------------------------------------||----------------------------------------||----------------------------------------||----------------------------------------||----------------------------------------||-0-0-0-0-0-0-0-0-5p3p0-0-0--5p3p0-5p3p0-|
|-------------------------||-------------------------||-------------------------||-------------------------||-------------------2-3-0-||-2-3-0-5-3-2-3-2-0-------|....T........T........T....
Verse Riff Part 2 * *|--------------------------------------------||--------------------------------------------||--------------------------------------------||--------------------------------------------||--------------------------------------------||-0-0-0-0-0-0-0-0-4b-0-0-0-0--0-0-4b-0-0-3p2-|
* *|--------------------------------------------||--------------------------------------------||--------------------------------------------||-----------------3b--------------3b---------||----------------------------------------3p2-||-0-0-0-0-0-0-0-0----0-0-0-0--0-0----0-0-----|
Pre-Chorus Riff * * *|-------------------------------------------||-------------------------------------------||-------------------------------------------||-----------------2b--------------2b-----2b-||-------------------------------------------||-0-0-0-0-0-0-0-0----0-0-0-0--0-0----0-0----|
* * *|-------------------------------------------||-------------------------------------------||-------------------------------------------||-----------------3b--------------3b-----3b-||-------------------------------------------||-0-0-0-0-0-0-0-0----0-0-0-0--0-0----0-0----|
Chorus Riff|----------------------------------------||----------------------------------------||----------------------------------------||-----------------7--------------7-----7-||-----------------x--------------x-----x-||-0-0-0-0-0-0-0-0-5-0-0-0-0--0-0-5-0-0-5-|
|---------------------------------------------||---------------------------------------------||---------------------------------------------||-----------------9--------------10-----12/13-||-----------------x--------------x------x--x--||-0-0-0-0-0-0-0-0-7-0-0-0-0--0-0-8--0-0-10/11-|
Verse Riff Part 3 * *|--------------------------------------------||--------------------------------------------||--------------------------------------------||--------------------------------------------||--------------------------------------------||-0-0-0-0-0-0-0-0-4b-0-0-0-0--0-0-4b-0-0-5p3-|
* * *|-------------------------------------------||-------------------------------------------||-------------------------------------------||-----------------3b--------------3b-----5b-||-------------------------------------------||-0-0-0-0-0-0-0-0----0-0-0-0--0-0----0-0----|
Pre-Chorus Riff * * *|-------------------------------------------||-------------------------------------------||-------------------------------------------||-----------------2b--------------2b-----2b-||-------------------------------------------||-0-0-0-0-0-0-0-0----0-0-0-0--0-0----0-0----|
* * *|-------------------------------------------||-------------------------------------------||-------------------------------------------||-----------------3b--------------3b-----3b-||-------------------------------------------||-0-0-0-0-0-0-0-0----0-0-0-0--0-0----0-0----|
Chorus Riff|----------------------------------------||----------------------------------------||----------------------------------------||-----------------7--------------7-----7-||-----------------x--------------x-----x-||-0-0-0-0-0-0-0-0-5-0-0-0-0--0-0-5-0-0-5-|
|---------------------------------------------||---------------------------------------------||---------------------------------------------||-----------------9--------------10-----12/13-||-----------------x--------------x------x--x--||-0-0-0-0-0-0-0-0-7-0-0-0-0--0-0-8--0-0-10/11-|
2nd Chorus Outro-Riff|-------------------------------------------||-------------------------------------------||-------------------------------------------||-------------------------------------------||-------------------------------------------||-0-0-0-0-0-0-0-0-3-2-0-0-0-0-0-3-2-0-0-3-2-|
|-------------------------------------------||-------------------------------------------||-------------------------------------------||-------------------------------------------||-------------------------------------------||-0-0-0-0-0-0-0-0-8-7-0-0-0-0-0-8-7-0-0-8-7-|
Guitar 1Verse Riff Part 1 * * *|-------------------------------------------||-------------------------------------------||-------------------------------------------||-------------------------------------------||-------------------------------------------||-0-0-0-0-0-0-0-0-4b-0-0-0-0--0-0-4b-0-0-1b-|
* * *|-------------------------------------------||-------------------------------------------||-------------------------------------------||-----------------3b--------------3b-----3b-||-------------------------------------------||-0-0-0-0-0-0-0-0----0-0-0-0--0-0----0-0----|
Guitar 2Reverb to max|------------------------------||---------------------------14-||------------------15----------||-9-------12-------------------||------------------------------||------------------------------|
|---------------------------13-||------------------------------||------------------13----------||-9-------12-------------------||------------------------------||------------------------------|
Both Guitars|-------------------------||-------------------------||-------------------------||-------------------------||-------------------2-3-0-||-2-3-0-5-3-2-3-2-0-------|....T........T........T....
Guitar 1|----------------------------------------------||----------------------------------------------||----------------------------------------------||----------------------------------------------||----------------------------------------------||-0-0-0-0-0-0-0-0-----0-0-0-0--0-0-----0-0-----|
Guitar 2|-----------------12---------------12------12--||-----------------15b--------------15b-----15b-||----------------------------------------------||----------------------------------------------||----------------------------------------------||----------------------------------------------|
|---|---|----|----------||---|---|----|----------||---|---|----|----------||-7-|-9-|-12-|-12/13/10-||-x-|-x-|-x--|-x--x--x--||-5-|-7-|-10-|-10/11/8--|
Guitar 1|----------------------------------------------||----------------------------------------------||----------------------------------------------||----------------------------------------------||-0-0-0-0-0-0-0-0-----0-0-0-0--0-0-----0-0-----||-0-0-0-0-0-0-0-0-----0-0-0-0--0-0-----0-0-----|
Tapping duetGuitar 1 T T T T T T|------------------------------------------------------||-12--8--5--12--8--5--12--8--12--8--5--12--8--5--12--8-||------------------------------------------------------||------------------------------------------------------||------------------------------------------------------||------------------------------------------------------|
T T T T T T|------------------------------------------------------||-13--8--5--13--8--5--13--8--13--8--5--13--8--5--13--8-||------------------------------------------------------||------------------------------------------------------||------------------------------------------------------||------------------------------------------------------|
Guitar 2 T T T T T T|-12--8--5--12--8--5--12--8--12--8--5--12--8--5--12--8-||------------------------------------------------------||------------------------------------------------------||------------------------------------------------------||------------------------------------------------------||------------------------------------------------------|
T T T T T T|-13--8--5--13--8--5--13--8--13--8--5--13--8--5--13--8-||------------------------------------------------------||------------------------------------------------------||------------------------------------------------------||------------------------------------------------------||------------------------------------------------------|
T T T T T T|-15--8--5--15--8--5--15--8--15--8--5--15--8--5--15--8-||------------------------------------------------------||------------------------------------------------------||------------------------------------------------------||------------------------------------------------------||------------------------------------------------------|
T T T T T T|-17--8--5--17--8--5--17--8--18--8--5--18--8--5--18--8-||------------------------------------------------------||------------------------------------------------------||------------------------------------------------------||------------------------------------------------------||------------------------------------------------------|
Both Guitars|--------------------------------------||--------------------------------------||--------------------------------------||--------------------------------------||--------------------------------------||-0-0--0-0--0-0-0-0--1-1--1-1--1-1-1-1-|
|--------------------------------------||--------------------------------------||--------------------------------------||--------------------------------------||--------------------------------------||-0-0--0-0--0-0-0-0--3-3--3-3--4-4-4-4-|
Verse Riff Part 1 * * *|-------------------------------------------||-------------------------------------------||-------------------------------------------||-------------------------------------------||-------------------------------------------||-0-0-0-0-0-0-0-0-4b-0-0-0-0--0-0-4b-0-0-1b-|
* * *|-------------------------------------------||-------------------------------------------||-------------------------------------------||-----------------3b--------------3b-----3b-||-------------------------------------------||-0-0-0-0-0-0-0-0----0-0-0-0--0-0----0-0----|
Verse Riff Part 2 * *|--------------------------------------------||--------------------------------------------||--------------------------------------------||--------------------------------------------||--------------------------------------------||-0-0-0-0-0-0-0-0-4b-0-0-0-0--0-0-4b-0-0-3p2-|
* *|--------------------------------------------||--------------------------------------------||--------------------------------------------||-----------------3b--------------3b---------||----------------------------------------3p2-||-0-0-0-0-0-0-0-0----0-0-0-0--0-0----0-0-----|
Verse Riff Part 3 * *|--------------------------------------------||--------------------------------------------||--------------------------------------------||--------------------------------------------||--------------------------------------------||-0-0-0-0-0-0-0-0-4b-0-0-0-0--0-0-4b-0-0-5p3-|
* * *|-------------------------------------------||-------------------------------------------||-------------------------------------------||-----------------3b--------------3b-----5b-||-------------------------------------------||-0-0-0-0-0-0-0-0----0-0-0-0--0-0----0-0----|
Pre-Chorus Riff * * *|-------------------------------------------||-------------------------------------------||-------------------------------------------||-----------------2b--------------2b-----2b-||-------------------------------------------||-0-0-0-0-0-0-0-0----0-0-0-0--0-0----0-0----|
* * *|-------------------------------------------||-------------------------------------------||-------------------------------------------||-----------------3b--------------3b-----3b-||-------------------------------------------||-0-0-0-0-0-0-0-0----0-0-0-0--0-0----0-0----|
Outro Riff|-------------------------||-------------------------||-------------------------||---3---2---3---2---3---2-||-------------------------||-0---0---0---0---0---0---|Hold the last note...
T - Tapping .T.- Tremulo * - Pinch Harmonic b - Bend P - Pull-off / - Slide x - Muted note
Please rate this tab:
x1.0