Misc Unsigned Bands – Robert Hunter - Raise Your Hand If Youre Absent tab

Tabbed by: Robert Hunter


Symbol Legend
-------------
h - hammer on
p - pulloff
b - bend
/ - slide foreward
\ - slide backward
~ - vibrato 
T - tremelo pick

 

Intro

|-12-10------------9-7---------7-5------------||-------10h11/12~------7h8/9~------5h6/7~-7~--||---------------------------------------------||---------------------------------------------||---------------------------------------------||---------------------------------------------|
|-12-10------------9-7---------7-5---------5-3-----------||-------10h11/12~------7h8/9~------5h6/7~------3h4/5~-5~-||--------------------------------------------------------||--------------------------------------------------------||--------------------------------------------------------||--------------------------------------------------------|
Intro pt. 2
|-3-5------------3-5p3--3-5------------3-5p3--||-----3-5p3--3-5------------3-5p3--3-5--------||---------------------------------------------||---------------------------------------------||---------------------------------------------||---------------------------------------------|
|-3-5-3-5-3----------3-5p3--3-5-3-5-3---------3-5p3-||-----------5-3--3-5-----------------5-3--3-5-------||---------------------------------------------------||---------------------------------------------------||---------------------------------------------------||---------------------------------------------------|
|-3-5------------------5-3--3-5-----------------5-3-||-----3-5p3--3-5-3-5-3----------3-5p3-3-5-3-5-3-----||---------------------------------------------------||---------------------------------------------------||---------------------------------------------------||---------------------------------------------------|
Riff 1
TTTTT TTTTT TTTTT TTTTT TTTTT TTTTT TTTTT TTTTT|-11111-44444-22222-55555-33333-66666-44444-77777---||---------------------------------------------------||---------------------------------------------------||---------------------------------------------------||---------------------------------------------------||---------------------------------------------------|
TTTTT TTTTT TTTTT TTTTT TTTTT TTTTTTTTTT TTTTT|-55555-88888-66666-99999-77777-1010101010-88888----||---------------------------------------------------||---------------------------------------------------||---------------------------------------------------||---------------------------------------------------||---------------------------------------------------|
TTTTTTTTTT TTTTT TTTTTTTTTT TTTTTTTTTT TTTTTTTTTT|-1111111111-99999-1212121212-1010101010-1313131313-||---------------------------------------------------||---------------------------------------------------||---------------------------------------------------||---------------------------------------------------||---------------------------------------------------|
TTTTTTTTTT TTTTTTTTTT TTTTTTTTTT TTTTTTTTTT TTTTTTTTTT|-1111111111-1414141414-1212121212-1515151515-13-1313131313-13-||--------------------------------------------------------------||--------------------------------------------------------------||--------------------------------------------------------------||--------------------------------------------------------------||--------------------------------------------------------------|
Riff 2
|-12-11----------------11-12b~-|-12-11----------------11-12b~-||-------12-11b~---11-12--------|-------12-11b~---11-12--------||------------------------------|------------------------------||------------------------------|------------------------------||------------------------------|------------------------------||------------------------------|------------------------------|
|-12-11----------------11-12b~-|-12-11----------------11-12b~-||-------12-11b~---11-12--------|-------12-11b~---11-12--------||------------------------------|------------------------------||------------------------------|------------------------------||------------------------------|------------------------------||------------------------------|------------------------------|
Riff 3
|-11-11-11-11-12-13-12-|-11-11-11-11-12-13-12-|-11-11-11-11-12-13-12-||----------------------|----------------------|----------------------||----------------------|----------------------|----------------------||----------------------|----------------------|----------------------||----------------------|----------------------|----------------------||----------------------|----------------------|----------------------|
|-11-11-11-------------|-11-11-11-------------|-11-11-11-------------||----------12-11b~-----|----------12-11b~-----|----------12-11b~-----||----------------------|----------------------|----------------------||----------------------|----------------------|----------------------||----------------------|----------------------|----------------------||----------------------|----------------------|----------------------|
Riff 4
|----------------------|----------------------|----------------------||-11-11-11-11-12-13-12-|-11-11-11-11-12-13-12-|-11-11-11-11-12-13-12-||----------------------|----------------------|----------------------||----------------------|----------------------|----------------------||----------------------|----------------------|----------------------||----------------------|----------------------|----------------------|
|----------------------|----------------------|----------------------||-11-11-11-------------|-11-11-11-------------|-11-11-11-------------||----------12-11b~-----|----------12-11b~-----|----------12-11b~-----||----------------------|----------------------|----------------------||----------------------|----------------------|----------------------||----------------------|----------------------|----------------------|
|----------------------||----------------------||----------------------||----------------------||----------------------||-12/1-----------------|
Verse
|--------------------------------------------|---------------------||--------------------------------------------|---------------------||--------------------------------------------|---------------------||-99-99-999-11---99-99-999-12---99-99-999-22-|-99-99-999-----11b~--||-77-77-777-9----77-77-777-10---77-77-777-9--|-77-77-777-----9b~---||--------------------------------------------|-----------7/9-------|
|--------------------------------------------|---------------------||--------------------------------------------|---------------------||--------------------------------------------|---------------------||-99-99-999-11---99-99-999-12---99-99-999-22-|-99-99-999-----12b~--||-77-77-777-9----77-77-777-10---77-77-777-9--|-77-77-777-----10b~--||--------------------------------------------|-----------7/10------|
|--------------------------------------------|---------------------||--------------------------------------------|---------------------||--------------------------------------------|---------------------||-99-99-999-11---99-99-999-12---99-99-999-22-|-99-99-999-----11b~--||-77-77-777-9----77-77-777-10---77-77-777-9--|-77-77-777-----9b~---||--------------------------------------------|-----------7/9-------|
|----------------------||----------------------||----------------------||-99-9-----------------||-77-7-----------------||------10/1------------|
Chorus
|-------------------------------------------||-------------------------------------------||-------------------------------------------||------------------7--------------------8---||-7-7-777-7/9-999--9---7-7-777-7/9-999--10--||-5-5-555-5/7-777------5-5-555-5/7-777------|
|-------------------------------------------------||-------------------------------------------------||-------------------------------------------------||------------------7------------------------------||-7-7-777-7/9-999--9---7-7-777-7/9-99999/101010\9-||-5-5-555-5/7-777------5-5-555-5/7-77777/8-8-8-\7-|
Verse 2
|--------------------------------------------|---------------------||--------------------------------------------|---------------------||--------------------------------------------|---------------------||-99-99-999-11---99-99-999-12---99-99-999-22-|-99-99-999-----11b~--||-77-77-777-9----77-77-777-10---77-77-777-9--|-77-77-777-----9b~---||--------------------------------------------|-----------7/9-------|
|--------------------------------------------|---------------------||--------------------------------------------|---------------------||--------------------------------------------|---------------------||-99-99-999-11---99-99-999-12---99-99-999-22-|-99-99-999-----12b~--||-77-77-777-9----77-77-777-10---77-77-777-9--|-77-77-777-----10b~--||--------------------------------------------|-----------7/10------|
|--------------------------------------------|---------------------||--------------------------------------------|---------------------||--------------------------------------------|---------------------||-99-99-999-11---99-99-999-12---99-99-999-22-|-99-99-999-----11b~--||-77-77-777-9----77-77-777-10---77-77-777-9--|-77-77-777-----9b~---||--------------------------------------------|-----------7/9-------|
|----------------------||----------------------||----------------------||-99-9-----------------||-77-7-----------------||------10/1------------|
Chorus
|-------------------------------------------||-------------------------------------------||-------------------------------------------||------------------7--------------------8---||-7-7-777-7/9-999--9---7-7-777-7/9-999--10--||-5-5-555-5/7-777------5-5-555-5/7-777------|
|-------------------------------------------------||-------------------------------------------------||-------------------------------------------------||------------------7------------------------------||-7-7-777-7/9-999--9---7-7-777-7/9-99999/101010\9-||-5-5-555-5/7-777------5-5-555-5/7-77777/8-8-8-\7-|
I haven't come come up with a solo or outro yet... will soon though. :O
Please rate this tab:
x1.0