Misc Unsigned Bands - Crisis Journey - Paranoid tab

-------------------------------------------------|-------------------------------------------------|-------------------------------------------------|-------------------------------------------------| X4-9--9-9-9--9-9-9-9-9-6-4-2--2-2-2--2-2-2-2-2-4-6-|-7--7-7-7--7-7-7-7-7-4-2-0--0-0-0--0-0-0-0-0-2-4-|
Why am I so paranoid What the fuck who are you
-------------------------------------------------|-------------------------------------------------|-------------------------------------------------|-------------------------------------------------|-9--9-9-9--9-9-9-9-9-6-4-2--2-2-2--2-2-2-2-2-4-6-|-7--7-7-7--7-7-7-7-7-4-2-0--0-0-0--0-0-0-0-0-2-4-|
Ive lost control of my mind Dont know what I'm meant to do
-------------------------------------------------|-------------------------------------------------|-------------------------------------------------|-------------------------------------------------|-9--9-9-9--9-9-9-9-9-6-4-2--2-2-2--2-2-2-2-2-4-6-|-7--7-7-7--7-7-7-7-7-4-2-0--0-0-0--0-0-0-0-0-2-4-|
These images and stories Revolve around memories
-------------------------------------------------|-------------------------------------------------|-------------------------------------------------|-------------------------------------------------|-9--9-9-9--9-9-9-9-9-6-4-2--2-2-2--2-2-2-2-2-4-6-|-7--7-7-7--7-7-7-7-7-4-2-0--0-0-0--0-0-0-0-0-2-4-|
Your doing this your doing that Your fucking this your fucking him
-------------------------------------------------|-------------------------------------------------|-------------------------------------------------|-------------------------------------------------|-9--9-9-9--9-9-9-9-9-6-4-2--2-2-2--2-2-2-2-2-4-6-|-7--7-7-7--7-7-7-7-7-4-2-0--0-0-0--0-0-0-0-0-2-4-|
-------------------------------------------------|-------------------------------------------------|-------------------------------------------------|-------------------------------------------------|-9-9-9-9-9-9-9-9-9-9-9-9-9-9-9-9-----------------|-7-7-7-7-7-7-7-7-7-7-7-7-7-7-7-7-----------------|I've lost control of what is going on in my head
-------------------------------------------------|-------------------------------------------------|-------------------------------------------------|-------------------------------------------------|-4-4-4-4-4-4-4-4-4-4-4-4-4-4-4-4-----------------|-2-2-2-2-2-2-2-2-2-2-2-2-2-2-2-2-----------------|Paranoia has taken over all my thoughts
-------------------------------------------------|-------------------------------------------------|-------------------------------------------------|-6-6-6-6-6-6-6-6-6-6-6-6-6-6-6-6-----------------|-4-4-4-4-4-4-4-4-4-4-4-4-4-4-4-4-----------------|-------------------------------------------------|It feels like Im stuck in a twister
-------------------------------------------------|-------------------------------------------------|-------------------------------------------------|-------------------------------------------------|-4-4-4-4-4-4-4-4-4-4-4-4-4-4-4-4-----------------|-2-2-2-2-2-2-2-2-2-2-2-2-2-2-2-2-----------------|I feel Id be Better of dead
-------------------------------------------------|-------------------------------------------------|-------------------------------------------------|-------------------------------------------------| X2-9--9-9-9--9-9-9-9-9-6-4-2--2-2-2--2-2-2-2-2-4-6-|-7--7-7-7--7-7-7-7-7-4-2-0--0-0-0--0-0-0-0-0-2-4-|
Yes or no? is it true Did you really mess with me
-------------------------------------------------|-------------------------------------------------|-------------------------------------------------|-------------------------------------------------|-9--9-9-9--9-9-9-9-9-6-4-2--2-2-2--2-2-2-2-2-4-6-|-7--7-7-7--7-7-7-7-7-4-2-0--0-0-0--0-0-0-0-0-2-4-|
I can hear all of you Talking about me
-------------------------------------------------|-------------------------------------------------|-------------------------------------------------|-------------------------------------------------|-9--9-9-9--9-9-9-9-9-6-4-2--2-2-2--2-2-2-2-2-4-6-|-7--7-7-7--7-7-7-7-7-4-2-0--0-0-0--0-0-0-0-0-2-4-|
Theres a riot in my head Telling me bad things
-------------------------------------------------|-------------------------------------------------|-------------------------------------------------|-------------------------------------------------|-9--9-9-9--9-9-9-9-9-6-4-2--2-2-2--2-2-2-2-2-4-6-|-7--7-7-7--7-7-7-7-7-4-2-0--0-0-0--0-0-0-0-0-2-4-|
Im really scared what you done But what the fuck is wrong with me
-------------------------------------------------|-------------------------------------------------|-------------------------------------------------|-------------------------------------------------|-9--9-9-9--9-9-9-9-9-6-4-2--2-2-2--2-2-2-2-2-4-6-|-7--7-7-7--7-7-7-7-7-4-2-0--0-0-0--0-0-0-0-0-2-4-|
-------------------------------------------------|-------------------------------------------------|-------------------------------------------------|-------------------------------------------------|-9-9-9-9-9-9-9-9-9-9-9-9-9-9-9-9-----------------|-7-7-7-7-7-7-7-7-7-7-7-7-7-7-7-7-----------------|I ve lost control of what is going on in my head
-------------------------------------------------|-------------------------------------------------|-------------------------------------------------|-------------------------------------------------|-4-4-4-4-4-4-4-4-4-4-4-4-4-4-4-4-----------------|-2-2-2-2-2-2-2-2-2-2-2-2-2-2-2-2-----------------|Paranoia has taken over all my thoughts
-------------------------------------------------|-------------------------------------------------|-------------------------------------------------|-6-6-6-6-6-6-6-6-6-6-6-6-6-6-6-6-----------------|-4-4-4-4-4-4-4-4-4-4-4-4-4-4-4-4-----------------|-------------------------------------------------|It feels like Im stuck in a twister
-------------------------------------------------|-------------------------------------------------|-------------------------------------------------|-------------------------------------------------|-4-4-4-4-4-4-4-4-4-4-4-4-4-4-4-4-----------------|-2-2-2-2-2-2-2-2-2-2-2-2-2-2-2-2-----------------|And it keeps on spinning me around
-------------------------------------------------|-------------------------------------------------|-------------------------------------------------|-------------------------------------------------|-9-9-9-9-9-9-9-9-9-9-9-9-9-9-9-9-----------------|-7-7-7-7-7-7-7-7-7-7-7-7-7-7-7-7-----------------|I keep telling myself your doing this and that
-------------------------------------------------|-------------------------------------------------|-------------------------------------------------|-------------------------------------------------|-4-4-4-4-4-4-4-4-4-4-4-4-4-4-4-4-----------------|-2-2-2-2-2-2-2-2-2-2-2-2-2-2-2-2-----------------|I think that Im thinking way too much
-------------------------------------------------|-------------------------------------------------|-------------------------------------------------|-6-6-6-6-6-6-6-6-6-6-6-6-6-6-6-6-----------------|-4-4-4-4-4-4-4-4-4-4-4-4-4-4-4-4-----------------|-------------------------------------------------|Why am I screwing with my own mind
-------------------------------------------------|-------------------------------------------------|-------------------------------------------------|-------------------------------------------------|-4-4-4-4-4-4-4-4-4-4-4-4-4-4-4-4-----------------|-2-2-2-2-2-2-2-2-2-2-2-2-2-2-2-2-----------------|I feel Id be better of dead
-------------------------------------------------|-------------------------------------------------|-------------------------------------------------|-------------------------------------------------| X2-9--9-9-9--9-9-9-9-9-6-4-2--2-2-2--2-2-2-2-2-4-6-|-7--7-7-7--7-7-7-7-7-4-2-0--0-0-0--0-0-0-0-0-2-4-|
-------------------------------------------------|-------------------------------------------------|-------------------------------------------------|-------------------------------------------------|-9-9---9-9-9-9---9---9-9---9-9-9-9---5-----------|-7-7---7-7-7-7---7---7-7---7-7-7-7---3-----------|
-------------------------------------------------|-------------------------------------------------|-------------------------------------------------|-------------------------------------12----------|-9-9---9-9-9-9---9---9-9---9-9-9-9---------------|-7-7---7-7-7-7---7---7-7---7-7-7-7---------------|
-------------------------------------------------|-------------------------------------------------|-10-12-12-12-10-12-12-12-10-12-10-12-------------|-------------------------------------12----------|-------------------------------------------------|-------------------------------------------------|
-------------------------------------------------|-------------------------------------------------|-10-12-12-12-10-12-12-12-10-12-10-12-------------|-------------------------------------10----------|-------------------------------------------------|-------------------------------------------------|
-------------------------------------------------|-------------------------------------------------|-10-12-12-12-10-12-12-12-10-12-10-12-------------|-------------------------------------12----------|-------------------------------------------------|-------------------------------------------------|
-------------------------------------------------|-------------------------------------------------|-10-12-12-12-10-12-12-12-10-12-10-12-------------|-------------------------------------10----------|-------------------------------------------------|-------------------------------------------------|
-------------------------------------------------|-15-18-18-18-15-18-18-18-15-18-15-18-------------|-------------------------------------17----------|-------------------------------------------------|-------------------------------------------------|-------------------------------------------------|
-------------------------------------------------|-15-18-18-18-15-18-18-18-15-18-15-18-------------|-------------------------------------15----------|-------------------------------------------------|-------------------------------------------------|-------------------------------------------------|
-------------------------------------------------|-15-18-18-18-15-18-18-18-15-18-15-18-------------|-------------------------------------17----------|-------------------------------------------------|-------------------------------------------------|-------------------------------------------------|
-------------------------------------------------|-15-18-18-18-15-18-18-18-15-18-15-18-------------|-------------------------------------15--17------|-------------------------------------------------|-------------------------------------------------|-------------------------------------------------|
-------------------------------------------------|-------------------------------------------------|-------------------------------------------------|-------------------------------------------------| X3-9--9-9-9--9-9-9-9-9-6-4-2--2-2-2--2-2-2-2-2-4-6-|-7--7-7-7--7-7-7-7-7-4-2-0--0-0-0--0-0-0-0-0-2-4-|
-------------------------------------------------|-------------------------------------------------|-------------------------------------------------|-------------------------------------------------|-9-9-9-9-9-9-9-9-9-9-9-9-9-9-9-9-----------------|-7-7-7-7-7-7-7-7-7-7-7-7-7-7-7-7-----------------|I ve lost control of what is going on in my head
-------------------------------------------------|-------------------------------------------------|-------------------------------------------------|-------------------------------------------------|-4-4-4-4-4-4-4-4-4-4-4-4-4-4-4-4-----------------|-2-2-2-2-2-2-2-2-2-2-2-2-2-2-2-2-----------------|Paranoia has taken over all my thoughts
-------------------------------------------------|-------------------------------------------------|-------------------------------------------------|-6-6-6-6-6-6-6-6-6-6-6-6-6-6-6-6-----------------|-4-4-4-4-4-4-4-4-4-4-4-4-4-4-4-4-----------------|-------------------------------------------------|It feels like Im stuck in a twister
-------------------------------------------------|-------------------------------------------------|-------------------------------------------------|-------------------------------------------------|-4-4-4-4-4-4-4-4-4-4-4-4-4-4-4-4-----------------|-2-2-2-2-2-2-2-2-2-2-2-2-2-2-2-2-----------------|And it keeps on spinning me around
-------------------------------------------------|-------------------------------------------------|-------------------------------------------------|-------------------------------------------------|-9-9-9-9-9-9-9-9-9-9-9-9-9-9-9-9-----------------|-7-7-7-7-7-7-7-7-7-7-7-7-7-7-7-7-----------------|I keep telling myself your doing this and that
-------------------------------------------------|-------------------------------------------------|-------------------------------------------------|-------------------------------------------------|-4-4-4-4-4-4-4-4-4-4-4-4-4-4-4-4-----------------|-2-2-2-2-2-2-2-2-2-2-2-2-2-2-2-2-----------------|I think that Im thinking way too much
-------------------------------------------------|-------------------------------------------------|-------------------------------------------------|-6-6-6-6-6-6-6-6-6-6-6-6-6-6-6-6-----------------|-4-4-4-4-4-4-4-4-4-4-4-4-4-4-4-4-----------------|-------------------------------------------------|Why am I screwing with my own mind
-------------------------------------------------|-------------------------------------------------|-------------------------------------------------|-------------------------------------------------|-4-4-4-4-4-4-4-4-4-4-4-4-4-4-4-4-----------------|-2-2-2-2-2-2-2-2-2-2-2-2-2-2-2-2-----------------|I feel Id be better of dead
------------------------------------------------- ----|------------------------------------------------- ----|------------------------------------------------- ----|------------------------------------------------- X4 ----|-9--9-9-9--9-9-9-9-9-6-4-2--2-2-2--2-2-2-2-2-4-6- -9--|-7--7-7-7--7-7-7-7-7-4-2-0--0-0-0--0-0-0-0-0-2-4- -7--|
More CJ tabs coming soon :D email me if ya got requests - fredchandler@btinternet.com
Tap to rate this tab
 
# A B C D E F G H I J K L M N O P Q R S T U V W X Y Z