Misc Unsigned Bands - Nathan Garcia - Well Kept Secret tab

Verse

|----------------------------------------------||----------------------------------------------||----------------------------------------------| X 4|------------------------777777777777777-------||--6-7-9-7-9-11-12-11-9--777777777777777-------||--0-0-0-0-0--0--0--0-0--555555555555555-------|
Bridge
.............. .. .. .. .. .. .. ..|----------------------------------------------||----------------------------------------------||--666666666666666--99-99-99-99-99-99-99-9-----| X 2|--666666666666666--99-99-99-99-99-99-99-9-----||--444444444444444--66-77-66-77-66-77-66-7-----||----------------------------------------------|
Chorus
|----------------------------------------------------------------------||----------------------------------------------------------------------||--444444444444444------------------------------------888888888888888--| X 4|--444444444444444--666666666666666--444444444444444--999999999999999--||--222222222222222--000000000000000--666666666666666--777777777777777--||------------------------------------000000000000000-------------------|
Verse Bridge Chorus Solo chords
|----------------------------------------------------------------------||----------------------------------------------------------------------||--999999999999999--666666666666666------------------------------------||--999999999999999--777777777777777--444444444444444--222222222222222--||--777777777777777--555555555555555--444444444444444--222222222222222--||------------------------------------222222222222222--444444444444444--|
Solo (guitar 1 and guitar 2)
1|---------------------------||---------------------------||--------------4-2-1-2-1----||------------------------2--||--------0-2-4--------------||--0-2-4--------------------|
2|---------------------------||--------------7-5-4-5-4----||------------------------4--||--------2-4-6--------------||--2-4-6--------------------||---------------------------|
1|---------------------------||---------------------------||--------------4-2-1-2-1----||------------------------2--||--------0-2-4--------------||--0-2-4--------------------|
2|---------------------------||--------------7-5-4-5-4----||------------------------4--||--------2-4-6--------------||--2-4-6--------------------||---------------------------|
1|------------------------------||---------------9-12-9---------||-------------9--------9-------||--4-6------9------------9-----||------7-11----------------11--||------------------------------|
2|-----------------11-14-11---------||--------------12----------12------||--6-8------11----------------11---||------9-13---------------------13-||----------------------------------||----------------------------------|
1 PH|--------------------------------||-----------14-----------14------||--------11-----------11---------||-----14-----------14------------||--11-----------11---------------||--------------------------------|
2 PH|-----------16-----------16------||--------14-----------14---------||-----16-----------16------------||--13-----------13---------------||--------------------------------||--------------------------------|
1|---------------------------------||--17-12--------------------------||--------14-11--------------------||--------------14-11--------------||--------------------12-----------||---------------------------------|
2|--19-14--------------------------||--------17-14--------------------||--------------16-13--------------||--------------------14-----------||---------------------------------||---------------------------------|
1|----------------------------------------||----------9---------10-------12---------||-------11---------9--------9------------||-----9---------11--------9--------------||--12--------11---------7----------------||----------------------------------------|
2|-----------11----------12---------14----||--------14----------10---------10-------||-----11----------13---------11----------||--14----------13----------9-------------||----------------------------------------||----------------------------------------|
1|--------------------------11-12------||---------------------9-12------------||--------------8-9-11-----------------||-------7-11-9------------------------||--9-11-------------------------------||-------------------------------------|
2|------------------------11-12-14-16--||----------------9-12-14--------------||--------9-13-11----------------------||--11-13------------------------------||-------------------------------------||-------------------------------------|
Tap to rate this tab
 
# A B C D E F G H I J K L M N O P Q R S T U V W X Y Z