Misc Unsigned Bands - Hemo - Veneciana tab

-------------------------------------------------------------------------------
			     Veneciana - hemo
-------------------------------------------------------------------------------
Tabbed by:
Email:

Tuning:standard

Guitar 2
                                                                
E||-------|-------|-------|-------|--<>12----------------|-------|B||-------|-------|-------|-------|----------------------|-------|G||-------|-------|-------|-------|----------------------|-------|D||-------|-------|-------|-------|----------------------|-------|A||-------|-------|-------|-------|----------------------|-------|E||-------|-------|-------|-------|----------------------|-------|
--<>12----------------|--<>12----------------|--7-7-7-7-7-7-7-7-7~--------|----------------------|----------------------|----------------------------|----------------------|----------------------|----------------------------|----------------------|----------------------|----------------------------|----------------------|----------------------|----------------------------|----------------------|----------------------|----------------------------|
-----10---7---8--------7--|----------------------------|------------------10------|--8-8-8-8-8-8-8-8-8~--------|--------------------------|----------------------------|--------------------------|----------------------------|--------------------------|----------------------------|--------------------------|----------------------------|
-------------------------|------------------------|------------------------|-----10---7---8-------7--|-----------------7---8--|-----------------7---8--|------------------9------|--9---9---9--9----------|--9---9---9--9----------|-------------------------|------------------------|------------------------|-------------------------|------------------------|------------------------|-------------------------|------------------------|------------------------|
------------------------|-----7--------------------|-----------------7---8--|-------------10--8--7-----|--9---9---9--9----------|--9-------9------------9--|------------------------|--------------------------|------------------------|--------------------------|------------------------|--------------------------|
----------2--3--5--3--2-3-2------|--2----------------------|-----3g5--------------------5----|-----5--3--5----5--3--5--|---------------------------------|-------------------------|---------------------------------|-------------------------|---------------------------------|-------------------------|---------------------------------|-------------------------|
--------7--8--10--8--7-8-7----7--|-----------------------------|---------------------------10----|--10--8-----7g8--8--8-----7--|-----9---------------------------|---------9-------------9-----|---------------------------------|-----------------------------|---------------------------------|-----------------------------|---------------------------------|-----------------------------|
--------0--2--3-----0--3--|--5-----0--5--7-----7--8--|-----0-----------0--------|-----0-----------0--------|--------------------------|--------------------------|--------------------------|--------------------------|--------------------------|--------------------------|--------------------------|--------------------------|
--10--8--7------7------------|--------------------------|------------10-----10--8--7--|--8-----7-----------------|-----------------------------|-----9-----7--9--7--9-----|-----------------------------|-----------------------9--|-----------------------------|--------------------------|-----------------------------|--------------------------|
--------0--2--3-----0--3--|--5-----0--5--7-----7--8--|-----0-----------0--------|-----0-----------0--------|--------------------------|--------------------------|--------------------------|--------------------------|--------------------------|--------------------------|--------------------------|--------------------------|
--10--8--7-8-7-----7--------------|-------10--8--7------------|---------------10-----10--8~------|-----------------10--8~----|----------------------------------|---------------------------|----------------------------------|---------------------------|----------------------------------|---------------------------|----------------------------------|---------------------------|
----------2--3--5--3--2-3-2------|--2----------------------|-----3g5--------------------5----|-----5--3--5----5--3--5--|---------------------------------|-------------------------|---------------------------------|-------------------------|---------------------------------|-------------------------|---------------------------------|-------------------------|
--------7--8--10--8--7-8-7----7--|-----------------------------|---------------------------10----|--10--8-----7g8--8--8-----7--|-----9---------------------------|---------9-------------9-----|---------------------------------|-----------------------------|---------------------------------|-----------------------------|---------------------------------|-----------------------------|
--------0--2--3-----0--3--|--5-----0--5--7-----7--8--|-----0-----------0--------|-----0-----------0--------|--------------------------|--------------------------|--------------------------|--------------------------|--------------------------|--------------------------|--------------------------|--------------------------|
--10--8--7------7------------|--------------------------|------------10-----10--8--7--|--8-----7-----------------|-----------------------------|-----9-----7--9--7--9-----|-----------------------------|-----------------------9--|-----------------------------|--------------------------|-----------------------------|--------------------------|
--------0--2--3-----0--3--|--5-----0--5--7-----7--8--|-----0-----------0--------|-----0-----------0--------|--------------------------|--------------------------|--------------------------|--------------------------|--------------------------|--------------------------|--------------------------|--------------------------|
--10--8--7-8-7-----7--------------|-------10--8--7------------|---------------10-----10--8~------|-----------------10--8~----|----------------------------------|---------------------------|----------------------------------|---------------------------|----------------------------------|---------------------------|----------------------------------|---------------------------|
----------2--3--5--3--2-3-2------|--2----------------------|-----3g5--------------------5----|-----5--3--5----5--3--5--|---------------------------------|-------------------------|---------------------------------|-------------------------|---------------------------------|-------------------------|---------------------------------|-------------------------|
--------7--8--10--8--7-8-7----7--|-----------------------------|---------------------------10----|--10--8-----7g8--8--8-----7--|-----9---------------------------|---------9-------------9-----|---------------------------------|-----------------------------|---------------------------------|-----------------------------|---------------------------------|-----------------------------|
-------------------------------|----------------------------|-------------------------------|---------------------7s--8--|----------------------2--2g4~--|-----4~--9--9--9--9---------|-----2g4--5--4--2--------------|----------------------------|-------------------2-----------|----------------------------|-------------------------------|----------------------------|
----------------------------|------------------------------|--8g10----8--8~------7s--8--|--8g10----8--8~----7----------|----------------------------|------------------------9g11--|----------------------------|------------------------------|----------------------------|------------------------------|----------------------------|------------------------------|
------------------7-8----|--10-12----8-10----7-8----5-7----|-------------------------|-------------------------------8-|--L----9--9--------------|---------------------------------|-------------------------|---------------------------------|-------------------------|---------------------------------|-------------------------|---------------------------------|
----------------------------|--------------------------------|---------------------7-8----|--10-12----8-10----7-8-7--------|--9g11----9--9--------------|--------------------------9--9--|----------------------------|--------------------------------|----------------------------|--------------------------------|----------------------------|--------------------------------|
--------------------------|--------------------------------------|--------------------------|--------------------------------------|--9--9--9--9--9--9--9--9--|--9--9--9--9--11-11-11-11-12-12-12-12-|--9--9--9--9--9--9--9--9--|--9--9--9--9--11-11-11-11-12-12-12-12-|--7--7--7--7--7--7--7--7--|--7--7--7--7---9--9--9--9-10-10-10-10-|--------------------------|--------------------------------------|
--------------------------|--------------------------------------|--------------------------|--------------------------------------|--5--5--5--5--5--5--5--5--|--7--7--7--7--12-12-12-12-11-11-11-11-|--5--5--5--5--5--5--5--5--|--7--7--7--7--12-12-12-12-11-11-11-11-|--3--3--3--3--3--3--3--3--|--5--5--5--5--10-10-10-10--9--9--9--9-|--3--3--3--3--3--3--3--3--|--5--5--5--5--10-10-10-10--9--9--9--9-|
--------------------------|--------------------------------------|--------------------------|--------------------------------------|--9--9--9--9--9--9--9--9--|--9--9--9--9--11-11-11-11-12-12-12-12-|--9--9--9--9--9--9--9--9--|--9--9--9--9--11-11-11-11-12-12-12-12-|--7--7--7--7--7--7--7--7--|--7--7--7--7---9--9--9--9-10-10-10-10-|--------------------------|--------------------------------------|
--------------------------|--------------------------------------|----|----|--------------------------|--------------------------------------|----|----|--5--5--5--5--5--5--5--5--|--7--7--7--7--12-12-12-12-11-11-11-11-|----|----|--5--5--5--5--5--5--5--5--|--7--7--7--7--12-12-12-12-11-11-11-11-|----|----|--3--3--3--3--3--3--3--3--|--5--5--5--5--10-10-10-10--9--9--9--9-|----|----|--3--3--3--3--3--3--3--3--|--5--5--5--5--10-10-10-10--9--9--9--9-|----|----|
Tablature Legend ---------------- L - tied note x - dead note g - grace note (n) - ghost note > - accentuded note NH - natural harmonic AH - artificial harmonic TH - tapped harmonic SH - semi harmonic PH - pitch harmonic h - hammer on p - pull off b - bend br - bendRelease pb - preBend pbr - preBendRelease brb - bendReleaseBend \n/ - tremolo bar dip \n - tremolo bar dive -/n - tremolo bar Release up /n\ - tremolo bar inverted dip /n - tremolo bar return -\n - tremolo bar Release down S - shift slide s - legato slide / - slide into from below or out of upwards \ - slide into from above or out of downwards ~ - vibrato W - wide vibrato tr - trill TP - tremolo picking T - tapping S - slap P - pop < - fade in ^ - brush up v - brush down
Tap to rate this tab
 
# A B C D E F G H I J K L M N O P Q R S T U V W X Y Z