Misc Unsigned Bands - Jens And Rikard - Hammer Smashed Face tab

Yo Ultimate Guitar! We have a video on youtube with this song. A lot of people have 
for tabs. Check it out: http://www.youtube.com/watch?v=CjjXeq7DK8E&fmt=18 Delete this 
when posting the tab to the site :)   /Jens and Rikard

                                Hammer Smashed Face in E Major


                                                                     Cannibal Corpse
                                                       Rearranged by Jens and Rikard
For Guitar

                          Enjoy! /Jens and Rikard

Legend:

PM - palm mute
AH - artificial harmonic
h - hammer on
p - pull off
\ - slide down
/ - slide up
~ - vibrato
. - short notes (staccato)

Intro riff:


E||--------------------------|--------------------------|--------------------------|B||--------------------------|--------------------------|--------------------------|G||--------------------------|--------------------------|--------------------------|D||--------------------------|--------------------------|--------------------------|A||--2-----2-----2-----9\----|--2-----2-----2-----9\----|--2-----2-----2-----9\----|E||--0-----0-----0-----7\----|--0-----0-----0-----7\----|--0-----0-----0-----7\----| . . . . . . . . .
|----------------------------------|||----------------------------------|||----------------------------------|||------------------6-6-6-6-4-4-4-4-|||----------------------------------|||--0-0-4-4-5-5-5-5-----------------||
Intro riff 2:
||-----------------------------------|----------------------------------|||------------------------------7----|-----------------------------5----|||*-----------------------------8----|-----------------------------6----|||*-----------------------------9----|-----------------------------7----|||------------------------------9----|-----------------------------7----|||---0--0--0--0--0--0--0--0--0--7----|--0--0--0--0--0--0--0--0--0--5----| PM PM PM PM PM PM PM PM PM PM PM PM PM PM PM PM PM PM
|----------------------------------|-----------------------------------|||-----------------------------9----|-----------------------------------|||-----------------------------9----|----------------------------------*|||-----------------------------9----|------------------6-6-6-6-4-4-4-4-*|||-----------------------------7----|-----------------------------------|||--0--0--0--0--0--0--0--0--0--0----|--0-0-4-4-5-5-5-5------------------|| PM PM PM PM PM PM PM PM PM
||----------------------------------------------------||--------------------||||----------------------------------------------------||--------------------||||*--------------------------------------------------*||--------------------||||*--------------------------------------------------*||--------------------||||----------------------------------------------------||--2-----------------||||---0--0--0--0--0--0--0--0--0--0--0--0--0--0--0--0---||--0-----------------|| PM PM PM PM PM PM PM PM PM PM PM PM PM PM PM PM
Verse riff:
||----------------------------||----------------------------||||----------------------------||----------------------------||||*--------------------------*||*--------------------------*||||*--------9-----------------*||*--------7-----------------*||||---7--6-----6--7--6---------||---5--4-----4--5--4---------||||---------------------9--7---||---------------------7--5---||
Verse riff 2:
||--------------------------||||--------------------------||||*------------------------*||||*------------------------*||||---------------7----------||||---2h--4--2---------0-----|| A.H.
Pre chorus: Variation:
||-------------||---------------||||-------------||---------------||||-------------||---------------||||-------------||---------------||||-------------||---------------||||--4--2--0----||--3\-2p-0------|| PM PM
Chorus riff:
||----------------------------|--------------------------|--------------------------|||----------------------------|--------------------------|--------------------------|||*---------------------------|--------------------------|--------------------------|||*---------------------------|----------9---------------|--------------------------|||---7h--11--7----6h--9--6----|--11--11--7----------6----|--------------------------|||----------------------------|--9---9--------7--9-------|--5h--9--5----4h--7--4----| PM PM PM PM
|-------------------------|||-------------------------|||------------------------*|||--------2---------------*|||--4--4--0----------------|||--2--2-------4--2--0-----|| PM PM PM PM
Chorus riff harmony:
||-------------------------|--------------------------|-------------------------|||-------------------------|--------------------------|-------------------------|||-------------------------|--------------------------|-------------------------|||--6h--9--6-------9-------|----------9---------------|-------------------------|||--------------9-----9----|--11--11--7----------6----|--4h--7--4-------7-------|||-------------------------|--9---9--------7--9-------|--------------7-----7----| PM PM PM PM
|------------------------|||------------------------|||------------------------|||--------2---------------|||--4--4--0---------------|||--2--2-------4--2--0----|| PM PM PM PM
Post Chorus riff:
||---------------------------|-------------------------||||---------------------------|-------------------------||||*--------------------------|------------------------*||||*--------------------------|--------------6---------*||||---5h--9--5----4h--7--4----|-------------------------||||---------------------------|--4h--5--4---------0-----|| A.H.
Interlude:
||------------------------------------||-------------------------||||------------------------------------||--------5----------4-----||||*----------------------------------*||--------6----------4----*||||*------------------6-6-6-6-4-4-4-4-*||--------6----------4----*||||------------------------------------||--------4----------2-----||||---0-0-4-4-5-5-5-5------------------||--0--0-------0--0--------|| PM PM PM PM
Bridge riff:
||--------------------------------------|-------------------------------------|||--------------------------------------|-------------------------------------|||*-------------------------------------|-------------------------------------|||*----------------------------------9--|--4--4--4-------------------4--4--4--|||---2--2--2-------------------2--2--7--|--2--2--2--4h-6p-4h-6p-4h-6-2--2-----|||---0--0--0--2h-4p-2h-4p-2h-4-0--0-----|-------------------------------------| PM PM PM PM PM PM PM PM
|-------------------------------------|--------------------------------------|||-------------------------------------|--------------------------------------|||-------------------------------------|-------------------------------------*|||--4--4--4-------------------4--4--4--|----------------------------------9--*|||--2--2--2--4h-6p-4h-6p-4h-6-2--2-----|--2--2--2-------------------2--2--7---|||-------------------------------------|--0--0--0--2h-4p-2h-4p-2h-4-0--0------|| PM PM PM PM PM PM PM PM
Bridge riff 2:
||---------------------------|---------------------------|---------------------------|||---------------------------|---------------------------|---------------------------|||---------------------------|---------------------------|---------------------------|||---------------------------|--2--2--2---------2--2-----|---------------------------|||--2--2--2---7-----2--2--7--|--0--0--0---7-----0--0--7--|--4--4--4----7----4--4--7--|||--0--0--0---------0--0-----|---------------------------|--2--2--2---------2--2-----| PM PM A.H. PM PM PM PM A.H. PM PM PM PM A.H. PM PM
|--------------------------|||--------------------------|||--------------------------|||--4--4--4--4--4--4--4--4--|||--2--2--2--2--2--2--2--2--|||--------------------------|| PM PM PM PM
Tremolo riff:
||----------------------------------------------------|||----------------------------------------------------|||*---------------------------------------------------|||*------------------------------------------------9--|||---7-7-7-7-7-7-11-11-11-7-11-7-6-6-6-9-9-9-------7--|||-------------------------------------------0--0-----| PM PM
|------------------------------------------------|||------------------------------------------------|||-----------------------------------------------*|||-----------------------------------------------*|||--4-4-4-4-4-4-7-7-7-4-7-4-2-2-2-6-6-6-------9---|||--------------------------------------0--0--7---|| PM PM
Tremolo riff 2:
||-----------------------------------------------------------------||5 ||-----------------------------------------------------------------||- ||*---------------------------------------------------------------*||4 ||*------------------------------------------------------------9--*|| ||---5-5-5-5-5-5-9-9-9-5h-9p-5---------------------------------7---|| ||-----------------------------5-5-5-5-5-5-9-9-9-5h-9p-5-0--0------|| PM PM
Ending:
|--3-----3-----2-----2-----|--0-----------------||--5-----5-----4-----4-----|--0-----------------||--3-----3-----2-----2-----|--1-----------------||--5-----5-----4-----4-----|--2-----------------||--3-----3-----2-----2-----|--2-----------------||--------------------------|--0-----------------| . . . .
Tap to rate this tab
 
# A B C D E F G H I J K L M N O P Q R S T U V W X Y Z