Misc Unsigned Bands - Switchblade Love - Scapegoat tab

h = hammer-on
p = pull-off
/ = slide
~ = vibrato
b = bend
r = release

[Intro]

After the bass has played for a few seconds, the guitar playes a C-chord.

|---0---||---1---||---0---||---2---||---3---||-------|
As soon as the chord is played, the other guitar starts playing.
(Clean guitar)|-------------------------------------||-------------------------------------||-------0-------0-------0-------0-----||-------------------------------------| |---3-3---3---------1-1---3---3---3---||-----------4-4---4-------------------|
Here comes the first guitar again, only this time, it plays this:
(Clean guitar)|---------------------------||---------------------------||---5-8-5-8-5---5-----8-5---||-----------------8-8-------| |---------------------------||---------------------------|
[Verse 1]
(Clean guitar)|-------------------------------------||-------------------------------------||-------0-------0-------0-------0-----||-------------------------------------| |---3-3---3---------1-1---3---3---3---||-----------4-4---4-------------------|
[Chorus]
(w/ distortion)|------------------------------||------------------------------||----5-8-5-8-5---5-----8-5-----||------------------8-8---------| x2|------------------------------||------------------------------|
|--------------------------------------||--------------------8-----------------||----5-8-5-8/10-8-10---10-8-10b12------||--------------------------------------||--------------------------------------||--------------------------------------|
|-----------------------------||-----------------------------||---5-8-5-8-5---5-----8-5-----||-----------------8-8---------| |-----------------------------||-----------------------------|
(Guitar 2 w/ distortion)|-------------------------------------------| *|-------------------------------------------| * |---5--5-x-x-x-x---------3--3-x-x-x-x-5-5---| * |---5--5-x-x-x-x-6-6-x-x-3--3-x-x-x-x-5-5---| * |---3--3-x-x-x-x-6-6-x-x-1--1-x-x-x-x-3-3---| * |----------------4-4-x-x--------------------| *
* |------------------------------------------| * Repeat this throughout|------------------------------------------| * the chorus.|---x-x-5--5-x-x-x-x----------------5--5---| * |---x-x-5--5-x-x-x-x-6-6-x-x--------5--5---| * |---x-x-3--3-x-x-x-x-6-6-x-x-1---1--3--3---| * |--------------------4-4-x-x---4-----------| *
[Verse 2]
(Guitar 1)|-----------------------------||-----------------------------||---5-8-5-8-5---5-----8-5-----||-----------------8-8---------| |-----------------------------||-----------------------------|
(Guitar 2)|-------------------------------------||-------------------------------------||-------0-------0-------0-------0-----||-------------------------------------| |---3-3---3---------1-1---3---3---3---||-----------4-4---4-------------------|
(Guitar 1 with low volume)
|------------------------||------------------------||------8-10-8-10-10b12---||---10-------------------||------------------------||------------------------|
[Chorus] "...All alone...."
|---------||---------||---------||---///---||---///---||---///---|
(Guitar 1)|-----------------------------||-----------------------------||---5-8-5-8-5---5-----8-5-----||-----------------8-8---------| |-----------------------------||-----------------------------|
|------------------------------------||------------------------------------||---5-8-5-8-5---5-----8-5------8-5---||-----------------8-8----------------| |------------------------------------||------------------------------------|
|--------------------------------------||--------------------8-----------------||----5-8-5-8/10-8-10---10-8-10b12------||--------------------------------------||--------------------------------------||--------------------------------------|
|-----------------------------||-----------------------------||---5-8-5-8-5---5-----8-5-----||-----------------8-8---------| |-----------------------------||-----------------------------|
|-------||-------||---5---||---5---||---3---||-------|
[First solo]
|-------------------------||-------------------------||-------------------------||---3/5---3h5-5p3h5p3h5---||-------------------------||-------------------------|
|----------------------------------------||----------------------------------------||--------8-10b12r10-8-----10b12-8--------||---8/10----------------------------10---||----------------------------------------||----------------------------------------|
|--------------------------------------------||--------------------------------------------||---------------------------------------8----||---10/----/8-10---/8-10---/8-10---/8-10-----||--------------------------------------------||--------------------------------------------|
|----------------------------------------8---||--------------------------------11-8-11-----||---8---8-8-10-8-10-8-10/12-10-8-------------||--------------------------------------------||--------------------------------------------||--------------------------------------------|
[End of solo] [Verse 3]
(Guitar 1)|----------------------------------||----------------------------------||---5-8-5-8/10-8-10-10b12r10-8-----||-----------------------------10---||----------------------------------||----------------------------------|
(Guitar 2)|-------------------------------------||-------------------------------------||-------0-------0-------0-------0-----||-------------------------------------| |---3-3---3---------1-1---3---3---3---||-----------4-4---4-------------------|
[Chorus]
(w/ distortion)|-------------------------------------------| |-------------------------------------------| |---5--5-x-x-x-x---------3--3-x-x-x-x-5-5---| |---5--5-x-x-x-x-6-6-x-x-3--3-x-x-x-x-5-5---| |---3--3-x-x-x-x-6-6-x-x-1--1-x-x-x-x-3-3---| |----------------4-4-x-x--------------------|
|------------------------------------------| |------------------------------------------| |---x-x-5--5-x-x-x-x----------------5--5---| |---x-x-5--5-x-x-x-x-6-6-x-x--------5--5---| |---x-x-3--3-x-x-x-x-6-6-x-x-1---1--3--3---| |--------------------4-4-x-x---4-----------|
[Second solo]
|----------------------------------------------------||----------------------------------------------------||---/12-12-12-12-12-12-12-12-12-12-12-12-12-12-12/---||---/12-12-12-12-12-12-12-12-12-12-12-12-12-12-12/---||----------------------------------------------------||----------------------------------------------------|
|------------------------------8----8-8~------||---1/8-11-8-11-8-11-8-11-8-11---11-----------||---------------------------------------------||---------------------------------------------||---------------------------------------------||---------------------------------------------|
|--------8----8-11-8-11-13b15-11---------------||---/11----11--------------------13~-----13/---||----------------------------------------------||----------------------------------------------||----------------------------------------------||----------------------------------------------|
|------8-10---11-10-11-11b13r11-8---||---11------------------------------||-----------------------------------||-----------------------------------||-----------------------------------||-----------------------------------|
"Time will come and time will pass..."
|----------------------------------------------------||----------------------------------------------------||---/12-12-12-12-12-12-12-12-12-12-12-12-12-12-12/---||---/12-12-12-12-12-12-12-12-12-12-12-12-12-12-12/---||----------------------------------------------------||----------------------------------------------------|
|------------------------------8----8-8~------||---1/8-11-8-11-8-11-8-11-8-11---11-----------||---------------------------------------------||---------------------------------------------||---------------------------------------------||---------------------------------------------|
|--------8----8-11-8-11-13b15-11---------------||---/11----11--------------------13~-----13/---||----------------------------------------------||----------------------------------------------||----------------------------------------------||----------------------------------------------|
|------8-10---11-10-11-10-11-10-11-11b13r11-8---||---11------------------------------------------||-----------------------------------------------||-----------------------------------------------||-----------------------------------------------||-----------------------------------------------|
"Cause I'm a scapegoat every day..."|---10h11-----10h11-------------13/15-18-18b20-18b20---||---------13--------13---13-11-------------------------||------------------------------------------------------||------------------------------------------------------||------------------------------------------------------||------------------------------------------------------|
The End
Tap to rate this tab
 
# A B C D E F G H I J K L M N O P Q R S T U V W X Y Z