Misc Unsigned Bands - Peace - Peace tab

Tabbed by Bryce Fleming
Peace - Peace
Debuted March 17, 2010

-----------------------------|x8|-----------------------------|x8|-2-----8\7---5---------------|x8|-2-----8\7---5---------------|x8|-0-0-0-6\5-0-3-0-0-0-000-0-0-|x8|-----------------------------|x8|
---------------------|---------------------|-7-----9-----5-----7-|-7-----9-----5-----7-|-5-----7-----3-----5-|---------------------|
-----------------------------|x4|-----------------------------|x4|-2-----8\7---5---------------|x4|-2-----8\7---5---------------|x4|-0-0-0-6\5-0-3-0-0-0-000-0-0-|x4|-----------------------------|x4|
---------------------|---------------------|-7-----9-----5-----7-|-7-----9-----5-----7-|-5-----7-----3-----5-|---------------------|
--------12--------------12--------------12-------------12----------|-----12----15p12-----12----15p12-----12----15p12----12----15p12----|-14b-------------14b-------------14b-------------14b---------------|-------------------------------------------------------------------|-------------------------------------------------------------------|-------------------------------------------------------------------|
-------------------------------------------------------------------|-15p12-15p12-15p12-15b-15-15-12----12------------------------------|--------------------------------15----15-14-12---------------------|-----------------------------------------------14-13-12------------|-------------------------------------------------------------------|-------------------------------------------------------------------|
---------------------------------------------------------------------------|---------------------------------------------------------------------------|---------------------------------------------------------------------------|-------10-12-12b-------10-12-12b-------10-12-12b-10-12b-10-12b-12-12-12-12-|-10-12-----------10-12-----------10-12-------------------------------------|---------------------------------------------------------------------------| (Releasing Bend)
-12--12-12--14--14-14--15--15-15--|x2|-15b-15b15b-17b-17b17b-18b-18b18b-|x2|----------------------------------|x2|----------------------------------|x2|----------------------------------|x2|----------------------------------|x2|
-15p14p12-15p14p12----12--------------------------------------------|-------------------14---14-12---------------------------------------|------------------------------14-12-10-12-12-12b-10----10-12-12-12b-|----------------------------------------------------12--------------|--------------------------------------------------------------------|--------------------------------------------------------------------|
--------------------------------------------------------------------|--------------------------------------------------------------------|-10----12p10----10--------------------------------------------------|----12-------12----12p10-12p10----10--------------------------------|-------------------------------12----12p10-12p10--------------------|-------------------------------------------------12-11-10-8\--------|
---------------------|---------------------|-7-----9-----5-----7-|-7-----9-----5-----7-|-5-----7-----3-----5-|---------------------|
-------------------------|x11|-------------------------|x11|-5-----2-----5-------8\7-|x11|-5-----2-----5-------8\7-|x11|-3-0-0-0-0-0-3-0-0-0-6\5-|x11|-------------------------|x11|
---------------------------------|---------------------------------|-2-----------------------------2-|-2-2---2-----2---------2-2-2-2-2-|-2-2-2-2-2-2-2-2-2-2-2-2-2-2-2-2-|-0-0-0-0-0-0-0-0-0-0-0-0-0-0-0-0-|
-----------------------------|x4|-----------------------------|x4|-2-----8\7---5---------------|x4|-2-----8\7---5---------------|x4|-0-0-0-6\5-0-3-0-0-0-000-0-0-|x4|-----------------------------|x4|
-------------------10-12b-10-----------12p9-12p9----9-----------|--------------10-12------------------------------12---12-11-9---|-2-----8/7-------------------2-----8\7------------------------9-|-2-----8/7-------------------2-----8\7--------------------------|-0-0-0-6/5-0-----------------0-0-0-6\5--------------------------|----------------------------------------------------------------|
-----------------7-9b-7-------------|-------------7-9--------------------|-2-----8\7--------------2-----8\7---|-2-----8\7--------------2-----8\7---|-0-0-0-6\5-0------------0-0-0-8\7-0-|------------------------------------|
-----------------------------|-----------------------------|-8-7-5----8-7-5----8-7-5-----|-8-7-5-5--8-7-5-5--8-7-5-5-5-|-------5--------5--------5-5-|---------------------------3-|
Tap to rate this tab
 
# A B C D E F G H I J K L M N O P Q R S T U V W X Y Z