Misc Unsigned Bands - Throne Of Entrails - Sea Of Death tab

www.myspace.com/throneofentrails

Tabbed and written by Jon Jamison
Band - Throne of Entrails
song - Sea of Death (album version)
100% accurate
Tuning c,g,c,f,a,d
starting tempo 120bpm

Intro T T-------------------------------|-------------------------------|2------------------------------|----3--------------------------|--5---1-111-11--1111111-111-111|--------000-00--0000000-000-000|
T T---------------------------------|---------------------------------|2--------------------------------|----3----------------------------|--5---2\6-000-00--0000000-000-000|----------111-11--1111111-111-111|
T T-------------------------------|-------------------------------|2------------------------------|----3--------------------------|--5---1-111-11--1111111-111-111|--------000-00--0000000-000-000|
T T----------------------------------|----------------------------------|2---------------------------------|----3-----------------------------|--5---0-000-000-0-00-0-00-11111111|------0-000-000-0-00-0-00-11111111|
T T T T---------------------------|---------------------------|---------------------------|---------------------------|000-000-12\-000-00011111111|000-000-12\-000-00011111111|
T T ---------------------------------------------------|---------------------------------------------------|-----------------------------------2---------------|-------------------------------------3-------------|000-000-0-00-0-00-12\1--00-00-000---5-1\5--65-65632|000-000-0-00-0-00-12\1--00-00-000--------58--------|
"The sea will Flow Crimson red"----------------------------|----------------------------|----------------------------|----------------------------|--65--2-2-3--65-665533223355|00--00-0-0-00---------------|
-------------------------------|-------------------------------|-------------------------------|------------------------2-5-3-6|------------------------2-5-3-6|-2\3-00-6-0-6-0-5-2\3-0-2-5-3-6|
----------------------------|----------------------------|----------------------------|----------------------------|--65--2-2-3--65-665533223355|00--00-0-0-00---------------|
------------------------------|------------------------------|------------------------------|------------------------2-5-3-|------------------------2-5-3-|-2\3-00-6-0-6-0-5-2\3-0-2-5-3-|
100 bpm slow down--------------------|--------------------|--------------------|6-2-5-3-6-2-5-1-----|6-2-5-3-6-2-5-1-----|6-2-5-3-6-2-5-1-----|
180 bpm speed up
T T T T T T--------------------------------------------|--------------------------------------------|--------------------------------------------|000-000-000--0-0-0-0--000-000-000043032901--|000-000-000--0-0-0-0--000-000-000043032901--|000-000-000--0-0-0-0--000-000-000043032901--|
T T T----------------------------------|------15-------11-----------------|------18-------14-----------------|000000---000000---00000004303201--|000000---000000---00000004303201--|000000---000000---00000004303201--|
T T T T T T--------------------------------------------|--------------------------------------------|--------------------------------------------|000-000-000--0-0-0-0--000-000-000043032901--|000-000-000--0-0-0-0--000-000-000043032901--|000-000-000--0-0-0-0--000-000-000043032901--|
T T T-------------------------------|------15-------11--------------|------18-------14--------------|000000---000000---0000000430320|000000---000000---0000000430320|000000---000000---0000000430320|
120 bpm slow down----------------------------------------|----------------------------------------|----------------------------------------|1--314310-----0-----1--314310-----0-----|1--314310--2220--2221--314310--2220--222|1--314310-----0-----1--314310-----0-----|
Tremlo 2x----------------------------------------|----------------------------------------|----------------------------------------|----------------------------------------|----------------------222222------222222|1111113311443311000000------000000------|
2x----------------------------------------------------------|----------------------------------------------------------|----------------------------------------------------------|----------------------------------------------------------|
0101222133221101012221332211010122213322113322112233221111|0101--21------0101--21------0101--21----------------------|
100 bpm slow down
-------------9----9-|------------8----8--|--------------9----9|2101210---11---11---|2101210-------------|2101210-------------|
T T--------------------------|--------------------------|--------------------------|000-000-0-00-0-00-11111111|000-000-0-00-0-00-11111111|000-000-0-00-0-00-11111111|
T T T T---------------------------|---------------------------|---------------------------|000-000-12\-000-00011111111|000-000-12\-000-00011111111|000-000-12\-000-00011111111|
T T T T--------------------------------------------|--------------------------------------------|--------------------------------------------|000-000-0-00-0-00-12\1--00-00-00-000-0-0000-|000-000-0-00-0-00-12\1--00-00-00-000-0-0000-|000-000-0-00-0-00-12\1--00-00-00-000-0-0000-|
Symbols \ slide T triplet www.myspace.com/throneofentrails
Tap to rate this tab
 
# A B C D E F G H I J K L M N O P Q R S T U V W X Y Z