Misc Unsigned Bands - Vore - Bring Me Back tab

-------------------------------------------------------------------------------
			     VORE- Bring Me Back
			  from 1997's Dead Kings Eyes
			         www.vore.org


   Ive -Brought Back- this song from 1997's Dead Kings Eyes for Page Townsley
and you,the public because Vore needs to be heard. . . .

          hopfully Vore will add it to the set list in the future.
                  anyway, this is how it sounds to me. . .

                                   horns up!

-------------------------------------------------------------------------------
Tabbed by:stay6c
Email:morbid_3@hotmail.com

Tuning:C?

intro (8x)0:07 |--------------------| |--------------------| |--------------------| |2-2-------2-2-------| |2-2-------2-2-------| |0-0-1-1-2-0-0-1-1-2-|pm. . . . . . . . . .
riff A0:21 |----------------------------------------------------| |----------------------------------------------------| |----------------------------------------------------| |4------------------4-3-4-3--------------------------| |4------------------4-3-4-3--------------------------| |2--0-0-0-0-0-0-0-0-2-1-2-1--2-2-2-2-1-1-1-1-4-4-4-4-| . . . . . . . . . . . . . . . . . . . .
|----------------------------------------------------| |----------------------------------------------------| |----------------------------------------------------| |4------------------4-3-4-3--------------------------| |4------------------4-3-4-3--------------------------| |2--0-0-0-0-0-0-0-0-2-1-2-1--1-1-1-1-0-0-0-0-3-3-3-3-| . . . . . . . . . . . . . . . . . . . .
|----------------------------------------------------| |----------------------------------------------------| |----------------------------------------------------| |4------------------4-3-4-3--------------------------| |4------------------4-3-4-3--------------------------| |2--0-0-0-0-0-0-0-0-2-1-2-1--2-2-2-2-1-1-1-1-4-4-4-4-| . . . . . . . . . . . . . . . . . . . .
|----------------------------------------------------| |----------------------------------------------------| |----------------------------------------------------| |4------------------4-3-4-3--------------------------| |4------------------4-3-4-3--------------------------| |2--0-0-0-0-0-0-0-0-2-1-2-1--1-1-1-1-0-0-0-0-3-3-3-3-| . . . . . . . . . . . . . . . . . . . .
riff B-1 (5x)0:35 |---------------------------------------------------------| |---------------------------------------------------------| |---------------------------------------------------------| |--------3-----1-1------2---------------------------------| |--------3-----1-1------2---------------------------------| |0-0-0-0---0-0-----0-0----0-0-0-0-0-0-0-0-0-0-0-0-0-0-0-0-| . . . . . . . . . . . . . . . . . . . . . . . .
riff B-2
0:54 |-------------------------------------------------| |-------------------------------------------------| |-------------------------------------------------| |--------3-----1-1------2---------5-----4/5-----3-| |--------3-----1-1------2---------5-----4/5-----3-| |0-0-0-0---0-0-----0-0----0-0-0-0-3-0-0-2/3-0-0-1-| . . . . . . . . . . . . . . . .
|-------------------------------------------------| |-------------------------------------------------| |-------------------------------------------------| |--------3-----1-1------2---------5-----4/5-----3-| |--------3-----1-1------2---------5-----4/5-----3-| |0-0-0-0---0-0-----0-0----0-0-0-0-3-0-0-2/3-0-0-1-| . . . . . . . . . . . . . . . .
|-------------------------------------------------| |-------------------------------------------------| |-------------------------------------------------| |--------3-----1-1------2---------5-----4/5-----3-| |--------3-----1-1------2---------5-----4/5-----3-| |0-0-0-0---0-0-----0-0----0-0-0-0-3-0-0-2/3-0-0-1-| . . . . . . . . . . . . . . . .
|-----------------------------------------------| |-----------------------------------------------| |-----------------------------------------------| |--------3-----1-1------2---------5-----4/5-----| |--------3-----1-1------2---------5-----4/5-----| |0-0-0-0---0-0-----0-0----0-0-0-0-3-0-0-2/3-0-0-| . . . . . . . . . . . . . . . .
riff C
slightly slower tempo1:08 |--------------------------------------------------------------| |--------------------------------------------------------------| |--------------------------------------------------------------| |5-----5-----5-5/6-----5-----5-5/6-----5-----5-5/6-------------| |5-----5-----5-5/6-----5-----5-5/6-----5-----5-5/6--2-2----2-2-| |3-0-0-3-0-0-3-3/4-0-0-3-0-0-3-3/4-0-0-3-0-0-3-3/4--0-0----0-0-| . . . . . . . . . . . . . . . .
|--------------------------------------------------------------| |--------------------------------------------------------------| |--------------------------------------------------------------| |5-----5-----5-5/6-----5-----5-5/6-----5-----5-5/6-------------| |5-----5-----5-5/6-----5-----5-5/6-----5-----5-5/6--2-2----2-2-| |3-0-0-3-0-0-3-3/4-0-0-3-0-0-3-3/4-0-0-3-0-0-3-3/4--0-0----0-0-| . . . . . . . . . . . . . . . .
|--------------------------------------------------------------| |--------------------------------------------------------------| |--------------------------------------------------------------| |5-----5-----5-5/6-----5-----5-5/6-----5-----5-5/6-------------| |5-----5-----5-5/6-----5-----5-5/6-----5-----5-5/6--2-2----2-2-| |3-0-0-3-0-0-3-3/4-0-0-3-0-0-3-3/4-0-0-3-0-0-3-3/4--0-0----0-0-| . . . . . . . . . . . . . . . .
|------------------------------------------------------------------| |------------------------------------------------------------------| |----------------------------------------------------7-6-4---------| |5-----5-----5-/5-6-----5-----5-5-/6-----5-----5-5/6-7-6-4-5-6-5-3-| |5-----5-----5-/5-6-----5-----5-5-/6-----5-----5-5/6-5-4-3-5-6-5-3-| |3-0-0-3-0-0-3-/3-4-0-0-3-0-0-3-3-/4-0-0-3-0-0-3-3/4-------3-4-3-1-| . . . . . . . .
riff B-1 (5x)1:36 |---------------------------------------------------------| |---------------------------------------------------------| |---------------------------------------------------------| |--------3-----1-1------2---------------------------------| |--------3-----1-1------2---------------------------------| |0-0-0-0---0-0-----0-0----0-0-0-0-0-0-0-0-0-0-0-0-0-0-0-0-| . . . . . . . . . . . . . . . . . . . . . . . .
riff B-2
1:50 |-------------------------------------------------| |-------------------------------------------------| |-------------------------------------------------| |--------3-----1-1------2---------5-----4/5-----3-| |--------3-----1-1------2---------5-----4/5-----3-| |0-0-0-0---0-0-----0-0----0-0-0-0-3-0-0-2/3-0-0-1-| . . . . . . . . . . . . . . . .
|-------------------------------------------------| |-------------------------------------------------| |-------------------------------------------------| |--------3-----1-1------2---------5-----4/5-----3-| |--------3-----1-1------2---------5-----4/5-----3-| |0-0-0-0---0-0-----0-0----0-0-0-0-3-0-0-2/3-0-0-1-| . . . . . . . . . . . . . . . .
|-------------------------------------------------| |-------------------------------------------------| |-------------------------------------------------| |--------3-----1-1------2---------5-----4/5-----3-| |--------3-----1-1------2---------5-----4/5-----3-| |0-0-0-0---0-0-----0-0----0-0-0-0-3-0-0-2/3-0-0-1-| . . . . . . . . . . . . . . . .
|-----------------------------------------------| |-----------------------------------------------| |-----------------------------------------------| |--------3-----1-1------2---------5-----4/5-----| |--------3-----1-1------2---------5-----4/5-----| |0-0-0-0---0-0-----0-0----0-0-0-0-3-0-0-2/3-0-0-| . . . . . . . . . . . . . . . .
fill A
2:04 |--------------------------------| |--------------------------------| |--7-6-5-----------7-6-5---------| |6-7-6-5-5-6-5-3-6-7-6-5-5-6-5-3-| |6-5-4-3-5-6-5-3-6-5-4-3-5-6-5-3-| |4-------3-4-3-1-4-------3-4-3-1-|
|--------------------------------| |--------------------------------| |--7-6-5-----------7-6-5---------| |6-7-6-5-5-6-5-3-6-7-6-5-5-6-5-3-| |6-5-4-3-5-6-5-3-6-5-4-3-5-6-5-3-| |4-------3-4-3-1-4-------3-4-3-1-|
riff D
2:11 |---------------------------------| |---------------------------------| |--6-4-5--------------------------| |5-6-4-5-6-5-3-1--3-3-3-3-3-3-3-3-| |5-4-2-3-6-5-3-1--3-3-3-3-3-3-3-3-| |3-------4-3-1----1-1-1-1-1-1-1-1-| . . . . . . . . . . . . . . .
|---------------------------------| |---------------------------------| |--6-4-5--------------------------| |5-6-4-5-6-5-3-1------------------| |5-4-2-3-6-5-3-1--1-2-1-2-1-2-1-2-| |3-------4-3-1----1-2-1-2-1-2-1-2-| . . . . . . . . . . . . . . .
|---------------------------------| |---------------------------------| |--6-4-5--------------------------| |5-6-4-5-6-5-3-1--3-3-3-3-3-3-3-3-| |5-4-2-3-6-5-3-1--3-3-3-3-3-3-3-3-| |3-------4-3-1----1-1-1-1-1-1-1-1-| . . . . . . . . . . . . . . .
|-----------------------------------------------| |-----------------------------------------------| |--6-4-5----------------------------------------| |5-6-4-5-6-5-3-1--------------------------------| |5-4-2-3-6-5-3-1--------------------------------| |3-------4-3-1----1-1-1---1-1-1---1-1-1---1-1-1-| . . . . . . . . . . . . . . . . . . .
|---------------------------------| |---------------------------------| |--6-4-5--------------------------| |5-6-4-5-6-5-3-1--3-3-3-3-3-3-3-3-| |5-4-2-3-6-5-3-1--3-3-3-3-3-3-3-3-| |3-------4-3-1----1-1-1-1-1-1-1-1-| . . . . . . . . . . . . . . .
|---------------------------------| |---------------------------------| |--6-4-5--------------------------| |5-6-4-5-6-5-3-1------------------| |5-4-2-3-6-5-3-1--1-2-1-2-1-2-1-2-| |3-------4-3-1----1-2-1-2-1-2-1-2-| . . . . . . . . . . . . . . .
|---------------------------------| |---------------------------------| |--6-4-5--------------------------| |5-6-4-5-6-5-3-1--3-3-3-3-3-3-3-3-| |5-4-2-3-6-5-3-1--3-3-3-3-3-3-3-3-| |3-------4-3-1----1-1-1-1-1-1-1-1-| . . . . . . . . . . . . . . .
|-----------------------------------------------| |-----------------------------------------------| |--6-4-5----------------------------------------| |5-6-4-5-6-5-3-1--------------------------------| |5-4-2-3-6-5-3-1--------------------------------| |3-------4-3-1----1-1-1---1-1-1---1-1-1---1-1-1-| . . . . . . . . . . . . . . . . . . .
|---------------------------------| |---------------------------------| |--6-4-5--------------------------| |5-6-4-5-6-5-3-1--3-3-3-3-3-3-3-3-| |5-4-2-3-6-5-3-1--3-3-3-3-3-3-3-3-| |3-------4-3-1----1-1-1-1-1-1-1-1-| . . . . . . . . . . . . . . .
|---------------------------------| |---------------------------------| |--6-4-5--------------------------| |5-6-4-5-6-5-3-1------------------| |5-4-2-3-6-5-3-1--1-2-1-2-1-2-1-2-| |3-------4-3-1----1-2-1-2-1-2-1-2-| . . . . . . . . . . . . . . .
|---------------------------------| |---------------------------------| |--6-4-5--------------------------| |5-6-4-5-6-5-3-1--3-3-3-3-3-3-3-3-| |5-4-2-3-6-5-3-1--3-3-3-3-3-3-3-3-| |3-------4-3-1----1-1-1-1-1-1-1-1-| . . . . . . . . . . . . . . .
|---------------------------------| |---------------------------------| |--6-4-5--------------------------| |5-6-4-5-6-5-3-1------------------| |5-4-2-3-6-5-3-1--1-2-1-2-1-2-1-2-| |3-------4-3-1----1-2-1-2-1-2-1-2-| . . . . . . . . . . . . . . .
|--------------------------------| |--------------------------------| |--------------------------------| |--------------------------------| |1-2-1-2-1-2-1-2-1-2-1-2-1-2-1-2-| |1-2-1-2-1-2-1-2-1-2-1-2-1-2-1-2-| . . . . . . . . . . . . . . . .
riff E (4x)2:57 |--------------------------------------| |--------------------------------------| |--------------------------------------| |------3-4-------3-4-------3-4-3-4-3-4-| |3--0--3-4-3--0--3-4-3--0--3-4-3-4-3-4-| |3--0--1-2-3--0--1-2-3--0--1-2-1-2-1-2-| . . . . . . . . . .
-NEXT- repeat riff B-1 3:11 followed by riff B-2 3:26 followed by riff E 3:40 riff F note: gtr-1 is playing section E while gtr-2 is playing riff F
(4x)3:54 |---------------------------------| |---------------------------------| |---------------------------------| |--------------2----------------2-| |--------------2----------------2-| |0-0-0-0-0-----0--0-0-0-0-0-----0-| . . . . . . . . . . . .
-NEXT- repeat riff E (4x) 4:10
4:15 |-------------------------------------------------| |-------------------------------------------------| |-------------------------------------------------| |------------------------------------------------2| |1-2-1-2-1-2-1-2-1-2-1-2-1-2-1-2-1-2-1-2-1-2--3--2| |1-2-1-2-1-2-1-2-1-2-1-2-1-2-1-2-1-2-1-2-1-2--3--0| . . . . . . . . . . . . . . . . . . . . . .
************************************ | . palm mute | / slide up | \ slide down | h hammer-on | p pull-off | ~ vibrato | + harmonic | x Mute note | b Bend | pb Pre-bend | br Bend release | pbr Pre-bend release | brb Bend release bend ************************************
Tap to rate this tab
 
# A B C D E F G H I J K L M N O P Q R S T U V W X Y Z