Misc Unsigned Bands - Floors And Walls - The Stand tab

hey this is my verion of the stand by floors and walls

this band is awesome and this is song to
not 100% but its pretty good any comments let u kno
and please rate :)

drop D tuning

intro|------------------------------|--------||------------------------------|--------||--------------9-9p6-------x2--|--------||--------6-6p4-------6-6p4-----|--7--6--||--4-4p2-----------------------|--5--4--||------------------------------|--------|
verse|-------2-2-----2-2-----2-----------||--xxx--2-2-xxx-2-2-xxx-2-xx--------||--xxx--2-2-xxx-2-2-xxx-2-xx--------|x4|--xxx--4-4-xxx-4-4-xxx-4-xx--7--6--||--xxx--4-4-xxx-4-4-xxx-4-xx--5--4--||-----------------------------------|
|------------------------------|--------||------------------------------|--------||--------------9-9p6-------x2--|--------||--------6-6p4-------6-6p4-----|--7--6--||--4-4p2-----------------------|--5--4--||------------------------------|--------|
|-------2-2-----2-2-----2-----------||--xxx--2-2-xxx-2-2-xxx-2-xx--------||--xxx--2-2-xxx-2-2-xxx-2-xx--------|x2|--xxx--4-4-xxx-4-4-xxx-4-xx--7--6--||--xxx--4-4-xxx-4-4-xxx-4-xx--5--4--||-----------------------------------|
chorus|----9--7---9--5-7-0--||----10-9---10-7-9-2--||----11-9---11-7-9-2--|x2|--4-11-9-7-11-7-9-2--||--4-9--7-7-9--5-7-0--||--4------7-----------|
|-----------------------------------------------------||-----------------------------------------------------||--111111111111111111111111-141414141414141414141414--||--111111111111111111111111-141414141414141414141414--||--9-9-9-9-9-9-9-9-9-9-9-9--121212121212121212121212--||-----------------------------------------------------|
|--------------------------------------||--------------------------------------||--111111111111111111111111--44--------||--111111111111111111111111--44--7--6--||--9-9-9-9-9-9-9-9-9-9-9-9---22--5--4--||--------------------------------------|
verse|-------2-2-----2-2-----2-----------||--xxx--2-2-xxx-2-2-xxx-2-xx--------||--xxx--2-2-xxx-2-2-xxx-2-xx--------|x4|--xxx--4-4-xxx-4-4-xxx-4-xx--7--6--||--xxx--4-4-xxx-4-4-xxx-4-xx--5--4--||-----------------------------------|
|------------------------------|--------||------------------------------|--------||--------------9-9p6-------x2--|--------||--------6-6p4-------6-6p4-----|--7--6--||--4-4p2-----------------------|--5--4--||------------------------------|--------|
|-------2-2-----2-2-----2-----------||--xxx--2-2-xxx-2-2-xxx-2-xx--------||--xxx--2-2-xxx-2-2-xxx-2-xx--------|x2|--xxx--4-4-xxx-4-4-xxx-4-xx--7--6--||--xxx--4-4-xxx-4-4-xxx-4-xx--5--4--||-----------------------------------|
chorus|----9--7---9--5-7-0--||----10-9---10-7-9-2--||----11-9---11-7-9-2--|x2|--4-11-9-7-11-7-9-2--||--4-9--7-7-9--5-7-0--||--4------7-----------|
not sure about this bit|--2-2---------0-0-------------2-2-----------------||--2-2-----3p2-2-2-----4-2-----2-2-----3p2---------||--2-2---2-----2-2-2-4-----4-2-2-2---2------44-22--||--4-4-4-------2-2-------------4-4-4--------44-22--||--4-4---------0-0-------------4-4----------22-00--||--------------------------------------------------|
|-----------------------------------------------------||-----------------------------------------------------||--111111111111111111111111-141414141414141414141414--||--111111111111111111111111-141414141414141414141414--||--9-9-9-9-9-9-9-9-9-9-9-9--121212121212121212121212--||-----------------------------------------------------|
|--------------------------------------||--------------------------------------||--111111111111111111111111--44--22----||--111111111111111111111111--44--22----||--9-9-9-9-9-9-9-9-9-9-9-9---22--00----||--------------------------------------|
chilled bit|--------9-----7--4------------------------------------||--------10----9--5-----------10-------------------14--||--------11----9--6------11------11---11------11-------|x4|--4--11-11--9-9--6----9----9-------9-------0----0-----||--4--9--9---7-7--4------------------------------------||--4-----------------9-------------------12------------|
chorus|----9--7---9--5-7-0--||----10-9---10-7-9-2--||----11-9---11-7-9-2--|x2|--4-11-9-7-11-7-9-2--||--4-9--7-7-9--5-7-0--||--4------7-----------|
|-----------------------------------||----xx-------xx-------xx-----------||----xx-------xx-------xx----44-22--||--4-xx-4---7-xx-7---4-xx-4--44-22--||--4-xx-4---7-xx-7---4-xx-4--22-00--||--4----4---7----7---4----4---------|
|-----------------------------------------------------||-----------------------------------------------------||--111111111111111111111111-141414141414141414141414--||--111111111111111111111111-141414141414141414141414--||--9-9-9-9-9-9-9-9-9-9-9-9--121212121212121212121212--||-----------------------------------------------------|
|--------------------------------------||--------------------------------------||--111111111111111111111111--44--22----|x2|--111111111111111111111111--44--22----||--9-9-9-9-9-9-9-9-9-9-9-9---22--00----||--------------------------------------|
outro|---------------------------------------------||---------------------------------------------||------11/7-6-----11/7-6----11-9---------6----||--444-11/7-6-444-11/7-6--4-11-9-7-4-7-6-6-4--||--444-9-/5-4-444-9-/5-4--4-9--7-7-4-7-6-4-4--||--444--------444---------4------7-4-7-6---4--|
thats it hope u enjoy playing the song :) any probs let u know
Tap to rate this tab
 
# A B C D E F G H I J K L M N O P Q R S T U V W X Y Z