Misc Unsigned Bands - Novella - The Tale Of The Water Demons tab version 2

all by ear babby

tuning:half step down but the first string is c#


-----------------------------------------------|-----------------------------------------------|-----------------------------------------------|-----------------------------------------------|--0-0-0-------0000-00-------0-0-0------0000-00-|--0-0-0-------0000-00-------0-0-0------0000-00-|
. . . .... .. . . . .... ..-----------------------------------------------|-----------------------------------------------|-----------------------------------------------|-----------------------------------------------|--0-0-0--0000-0-0-0-9h12-00-8h11p8-------------|--0-0-0--0000-0-0-0------00--------------------|
. . . .... . . . ..-----------------------------------------------|-----------------------------------------------|-----------------------------------------------|-----------------------------------------------|--0-0-0----000--0-0-0-00000000-----------------|--0-0-0----000--0-0-0-00000000-----------------| . . . ... . . . ........
-----------------------------------------------|-----------------------------------------------|-----------------------------------------------|-----------------------------------------------|--0-0-0--0000-0-0-0-9h12-00-8h11p8-------------|--0-0-0--0000-0-0-0------00--------------------|
. . . .... . . . ..-----------------------------------------------|-------------------------------6~--------------|-------------------------------9~--------------|-----------------------------------------------|--0-0-0----000--0-0-0-00000000-----10-10-7-7---|--0-0-0----000--0-0-0-00000000-----10-10-7-7---| . . . ... . . . ........
i nvr got the nxt part
-----------------------------------------------|--6--------------------------------------------|--9x7----10--12--9--figure out the rhytum------|-----------------------------------------------|----------8--10--7-----------------------------|-----------------------------------------------|
-----------------------------------------------|-----------------------------------------------|-----------10-10-10--10------------------------|-----------------------------------------------|--0~----0~--8--8--8--8\------------------------|--0~----0~-------------------------------------| . .
-----------------------------------------------|-----------------------------------------------|-----------------------------------------------|-----------------------------------------------|--0--------------------------------------------|--0x4-then-x8-then-x3--------------------------|
-----------------------------------------------|-----------------------------------------------|x 16 on all--10--12--15--17-------------------------------|-----------------------------------------------|--8---10--13--15-------------------------------|-----------------------------------------------|
-----------------------------------------------|-----------------------------------------------|-10--12--9--5---7---9--------------------------|-----------------------------------------------|--8--10--7--3---5---7--------------------------|-----------------------------------------------|
-----------------------------------------------|-----------------------------------------------|--------10----------10/12--12------------------|-----------------------------------------------|--0-0-0--8x6--0-0-0--8/10--10x6----------------|--0-0-0-------0-0-0----------------------------|
-----------------------------------------------|-----------------------------------------------|--------10-------------------------------------|-----------------------------------------------|--0-0-0--8x6--5h8trill--4h7trill---------------|--0-0-0----------------------------------------|
-----------------------------------------------|-----------------------------------------------|--------10----------10/12--12------------------|-----------------------------------------------|--0-0-0--8x6--0-0-0--8/10--10x6----------------|--0-0-0-------0-0-0----------------------------|
----------------------------------------------------------|----------------------------------------------------------|--------10------------------------------------------------|----------------------------------------------------------|--0-0-0--8x6--5h8trill--4h7trill--5h8trill--4h7trill------|--0-0-0---------------------------------------------------|
-----------------|-----------------|-----------------|-----------------|--0---0---0------|--0---0---0------|
badass breakdown
-----------------------------------------------|-----------------------------------------------|-----------------------------------------------|-----------------------------------------------|-----------8------------8t-7t-5t---------------|--00000000---000-000000----------88------------|
-----------------------------------------------|-----------------------------------------------|-----------------------------------------------|-----------------------------------------------|-----------7------------7----------------------|--88888888---888-888888---888------------------|
then same thing except all tremelo
-----------------------------------------------|-----------------------------------------------|-----------------------------------------------|-----------------------------------------------|--8--10---0~--that--is--not--man!--------------|--8--10---0~-----------------------------------|
-----------------------------------------------|-----------------------------------------------|-----------------------------------------------|-----------------------------------------------|--8--7---0~-000000000--0-----------------------|--8--7---0~-000000000--0-----------------------|
comment how good it is nobdy has a fucking tab 4 diz song
Tap to rate this tab
 
# A B C D E F G H I J K L M N O P Q R S T U V W X Y Z