Misc Unsigned Bands - Aftermath - Soul Sucker tab version 1

one of the more well known songs from an album i hope to put out. Please rate!

I tune to D,A,D,G,A#,d but drop D will be fine since the top 2 strings are not used.
----------------------------------------------------------------------------
INTRO

[GTR 1]|-------------------------------------------------------------------------||-------------------------------------------------------------------------||-------------------------------------------------------------------------||---------------0---------------0---------------0-------------0-----0---0-||------------0---------------0---------------0--------------0-----0-------||-0-------0-------1-------1-------3-------3-------1-------1-----3-----1---|[GTR 2] OPEN CHUGG AT THESE POINTS | | | | | | | |
PLAY [GTR 1] AND [GTR 2] TWICE ---------------------------------------------------------------------------- MAIN RIFF
[GTR 1]|-------------------------------------------------||-------------------------------------------------||-------------------------------------------------||-0---0-------------------0-0-0-0-----------------||-0---0-------------------0-0-0-0-----------------||-0---0---3p2-0h5---0h2h3-0-0-0-0-3p2-0h6---0h2h3-|PM• • • • • •
|-------------------------------------------------||-------------------------------------------------||-------------------------------------------------||-0---0-------------------7--6--5--7--6-5---------||-0---0-------------------7--6--5--7--6-5---------||-0---0---3p2-0h5---0h2h3-7--6--5--7--6-5---------|PM• •
[GTR 2]|-------------------------------------------------||-------------------------------------------------||-------------------------------------------------||-------------------------------------------------||-------------------------------------------------||-0-0-0-0-0-0-0-0-7-7-7-7-7-7-7-7-8-8-8-8-8-8-8-8-|
|-------------------------------------------------||-------------------------------------------------||-------------------------------------------------||-------------------------------------------------||-------------------------------------------------||-3-3-3-3-5-5-5-5---------------------------------|
---------------------------------------------------------------------------- PRECHORUS
[GTR 1]|-------------------------------------------------------------||-------------------------------------------------------------||-------------------------------------------------------------||-00-00-00-00-000000-00-00-00-000000-00-00-00-000000-00-00-00-||-00-00-00-00-000033-33-11-11-333300-00-00-00-000033-33-44-44-||-00-00-00-00-000000-00-00-00-000000-00-00-00-000000-00-00-00-|PM•• •• •• •• •••••• •• •• •• •••••• •• •• •• ••••
---------------------------------------------------------------------------- CHORUS
[GTR 1]|------------------------------------------||------------------------------------------||----------9--8--7-4---5-------------------||-0---xxxx-7--6--5-3---3-------------------||-0---xxxx-7--6--5-3---3-------------------||-0---xxxx-7--6--5-3---3---3p0h2h5-0h3h6p3-|
|------------------------------------||------------------------------------||----------9--8--7-4---5-------------||-0---xxxx-7--6--5-3---3---5--5--5h6-||-0---xxxx-7--6--5-3---3---5--5--5h6-||-0---xxxx-7--6--5-3---3---5--5--5h6-|
PLAY THIS TWICE
[GTR 2]|-----------------------------------------||-----------------------------------------||-----------------------------------------||-----------------------------------------||---------3-3-3-3-------------------------||-0-0-0-0---------3-3-3-3-3p0h2h5-0h3h6p3-|
|------------------------------------||------------------------------------||------------------------------------||------------------------------------||---------5-5-5-5--------------------||-0-0-0-0---------3-3-3-3-5--5--5h6--|
---------------------------------------------------------------------------- INTERLUDE/SOLO
[GTR 1]|----------------------------------------------------------------||----------------------------------------------------------------||----------------------------------------------------------------||-----0---3-0-----------0-3-0-----------0-3-0-----------0-3-0---6||---0---0-----3-4-----4-------3-1-----1-------3-0-----0-------0--||-0-----------------0---------------0---------------0------------|
|----------------------------------------------------------------||----------------------------------------------------------------||----------------------------------------------------------------||-----0---3-0-----------0-3-0-----------0-3-0-----------0-3-0---1||---0---0-----3-4-----4-------3-1-----1-------3-0-----0-------0--||-0-----------------0---------------0---------------0------------|
NOTICE VERY LAST NOTE! PLAY THESE TWO PARTS TWICE
[GTR 2]THIS COMES IN THE SECOND TIME [GTR 1] IS PLAYED|-------------------------------------------------------------||-------------------------------------------------------------||-------------------------------------------------------------||-0-0---0-0---0---0---0---0---0-0-0---0-0---0---0---0---0---0-||-0-0---0-0---0---0---0---0---0-0-0---0-0---0---0---0---0---0-||-0-0---0-0---0---0---0---0---0-0-0---0-0---0---0---0---0---0-|PM• • • • • • • • • • • • • • • • • •
|-------------------------------------------------------------||-------------------------------------------------------------||-------------------------------------------------------------||-3-3---3-3---3---3---3---3---3-5-5---5-5---5---5---5---5---5-||-3-3---3-3---3---3---3---3---3-5-5---5-5---5---5---5---5---5-||-3-3---3-3---3---3---3---3---3-5-5---5-5---5---5---5---5---5-|PM• • • • • • • • • • • • • • • • • •
---------------------------------------------------------------------------- AFTER THE INTERLUDE/SOLO
[GTR 1]|-------------------------------------------------||-------------------------------------------------||-------------------------------------------------||-0-------2---------------------------------------||---------0---------------------------------------||-----------------0-0-0-0-0-0-0-0-3-3-3-3-3-3-3-3-|
|-----------------------------------------||-----------------------------------------||-----------------------------------------||-----------------------------------------||---------3-3-3-3-------------------------||-0-0-0-0---------3-3-3-3-3p0h2h5-0h3h6p3-|
|-----------------------------------------||-----------------------------------------||-----------------------------------------||-----------------------------------------||---------3-3-3-3-------------------------||-0-0-0-0---------3-3-3-3-3p0h2h5-0h3h6p3-|
[GTR 2]|-----------------------------------------------------------------||-----------------------------------------------------------------||-----------------------------------------------------------------||-0-0-0-0-0-0-0-0-3-3-3-3-3-3-3-3-5-5-5-5-5-5-5-5-7-7-7-7-7-7-7-7-||-0-0-0-0-0-0-0-0-3-3-3-3-3-3-3-3-5-5-5-5-5-5-5-5-7-7-7-7-7-7-7-7-||-0-0-0-0-0-0-0-0-3-3-3-3-3-3-3-3-5-5-5-5-5-5-5-5-7-7-7-7-7-7-7-7-|PM• • • • • • • • • • • • • • • • • • • • • • • • • • • • • • • •
---------------------------------------------------------------------------- PLAY CHORUS TWICE THEN PLAY...
[GTR 1]|--------------------------------------------------------------------------||--------------------------------------------------------------------------||--------------------------------------------------------------------------||-0~~-----------0-0-0~~-----------0-0-0~~-----------0-0-0~~-----------0000-||-0~~-----------0-0-0~~-----------0-0-0~~-----------0-0-0~~-----------0000-||-0~~-----------0-0-0~~-----------0-0-0~~-----------0-0-0~~-----------0000-|PM • • • • • • ••••
END OF SONG
Tap to rate this tab
 
# A B C D E F G H I J K L M N O P Q R S T U V W X Y Z