Misc Unsigned Bands - Marsiling Boys - Tangisan Rindu tab version 1

Intro is 100% accurate
I changed it from my previous tab
Enjoy
And dont forget to rate & comment :D



|------------------||------------------||-----0------------| |-------0-----0----||---------0----0---||-2-3-3-----3----3-|
|--------------------||-------3------------||--------------------| |---------0-----0----||-----------0----0---||-0-2-3-3-----3----3-|
|--------------------||-------0------------||--------------------| |---------0-----0----||-----------0----0---||-0-2-3-3-----3----3-|
|---------------------||---------------------||-------0-------------||---------0-----0-----||-----------0-----0---||-0-5-3-2-----2-----2-|
|------------------||------------------||-----0------------| |-------0-----0----||---------0----0---||-2-3-3-----3----3-|
|--------------------||-------3------------||--------------------| |---------0-----0----||-----------0----0---||-0-2-3-3-----3----3-|
|--------------------||-------0------------||--------------------| |---------0-----0----||-----------0----0---||-0-2-3-3-----3----3-|
|---------------------||---------------------||-------0-------------||---------0-----0-----||-----------0-----0---||-0-5-3-2-----2-----2-|
|--------------||--------------||--------------||--0-----0-----||----0-----0---||------2-----2-|
|-------------------------||-------------------------||-------------------------||-----0-----0-----0-----0-||---0-----0-----0-----0---||-2-----3-----5-----0-----|
|---------------------||---------------------||---------------------||-5-------------------||-5-------------------||-5-7-8-0-8-7-5-3-3/5-|
|-5-7---------3-5-0-5-5-||-----5-7-5-3-----------||-----------------------||-----------------------||-----------------------||-----------------------|
Chord : Am, Dm, G, C, F, Dm, E ( play each chord twice for the first verse ) Dan aku ditenggelami.. F, E, Am
Tap to rate this tab
 
# A B C D E F G H I J K L M N O P Q R S T U V W X Y Z