Misc Unsigned Bands - Horns Over Halos - Desperation tab

(Intro X3) --------------------------------------------------------------------| --------------------------------------------------------------------| --------------------------------------------------------------------| ------5-5-5-7-7-7-8-8-8-8-8-8-----4-4-4-5-5-5-7-7-7-5-5-5-4-4-4-4-4-| -5-5-5-----------------------4-4-4----------------------------------| --------------------------------------------------------------------|
(End of Intro Riff) --------------------------------------------------------------------------| --------------------------------------------------------------------------| --------------------------------------------------------------------------| -------5-5-5--7-7-7-8-8-8-8-8-8-------------------------------------------| -5-5-5--------------------------------12-12-12-8-8-8-------10-10-10-7-7-7-| --------------------------------8-8-8----------------7-7-7----------------|
. . . . . .(X4) -------------------------------------------| -------------------------------------------| -------------------------------------------| -------------------------------------------| ------555777888888----44455577755544444444-| -555---------------444---------------------|
----------------------------------------------| ----------------------------------------------| ----------------------------------------------| ----------------------------------------------| ------555777888-----121212101010---101010777--| -555------------888-------------777-----------|
... ...(X3) -------------------------------------| -------------------------------------| -------------------------------------| -------------------------------------| -------5-7-8-7-5-5-/-4-4-4-4-4--4-4--| -5-5-5--5-5-5-5--5/--4-4-4-4-4--4-4--|
. . . . . . . . . . . . (4th time) -------------------------| -------------------------| -------------------------| -------------------------| -------5-7-8-7-5--/9-/-3-| -5-5-5--5-5-5-5---/7-/-5-|
. . . . . . . (X4) -----------------------------------| -----------------------------------| -----------------------------------| ------5-7-8-7-5--------------------| -5-5-5-5-5-5-5--5/-4-4-4-4-4-5-7---| -----------------------------------| . . . . . . . . . . .
(X4) ---------------------------------------------------------| ---------------------------------------------------------| ---------------------------------------------------------| ---------------------------------------------------------| -5--5-5--8-7-5-4-4-4-------------------------------------| -5--5-5--8-7-5-4-4-4-8-8-8-7-7-7-5-5-5-7-7-7-5-5-5-4-4-4-|
. . . . . . . . . . . . . . . . . . (Chorus) (X4) ----------------------------------------------------------------------------| ----------------------------------------------------------------------------| ----------------------------------------------------------------------------| ----------------------------------------------------------------------------| ----------------------------------------------------------------------------| -555555-777777-5-7-3-333333--555555-3-5-111111-3-1-00000000000--------------|
(X4) --------------------------------------------| ---------------------------------------------| ---------------------------------------------| ---------------------------------------------| ------555777888888----44455577755544444444---| -555---------------444-----------------------|
----------------------------------------------| ----------------------------------------------| ----------------------------------------------| ----------------------------------------------| ------555777888-----121212101010---101010777--| -555------------888-------------777-----------| ... ...
(X3) -------------------------------------| -------------------------------------| -------------------------------------| -------------------------------------| -------5-7-8-7-5-5-/-4-4-4-4-4--4-4--| -5-5-5--5-5-5-5--5/--4-4-4-4-4--4-4--|
. . . . . . . . . . . . (4th time) -------------------------| -------------------------| -------------------------| -------------------------| -------5-7-8-7-5--/9-/-3-| -5-5-5--5-5-5-5---/7-/-5-|
. . . . . . . (X4) -----------------------------------| -----------------------------------| -----------------------------------| ------5-7-8-7-5--------------------| -5-5-5-5-5-5-5--5/-4-4-4-4-4-5-7---| -----------------------------------| . . . . . . . . . . .
(X4) ---------------------------------------------------------| ---------------------------------------------------------| ---------------------------------------------------------| ---------------------------------------------------------| -5--5-5--8-7-5-4-4-4-------------------------------------| -5--5-5--8-7-5-4-4-4-8-8-8-7-7-7-5-5-5-7-7-7-5-5-5-4-4-4-| . . . . . . . . . . . . . . . . . .
Solo Section will be taught in person.
Tap to rate this tab
 
# A B C D E F G H I J K L M N O P Q R S T U V W X Y Z