Misc Unsigned Bands - Ispystrangers - Dancing In The Wreckage tab

hey heres my version of dancing in the wreckage

here the myspace - www.myspace.com/ispystrangers

awesome song and a wickid band and fun to play hope it helps and any probs let us kno :)

tuning is (Db Ab Db Gb Bb Eb)

intro

|------||------||------||--0~--||--0~--||--0~--|
drums come in then
|------------------------------------------------------------||------------------------------------------------------------||------------------------------10-9----12-10-----------------||---------------------5*------------10------------10---------||--0000-----1-0-0-0-0---5*----------------------8-------8-7--||--0000-1-3---0-0-0-0-----5*-0---------------10------10------|
|-------------------------------------------------------------||-------------------------------------------------------------||------------------------------10-9----12-10----12-10-9-10-9--||---------------------5*------------10-------10---------------||--0000-----1-0-0-0-0---5*------------------------------------||--0000-1-3---0-0-0-0-----5*-0--------------------------------|
|------------------------------------------------------------||------------------------------------------------------------||------------------------------10-9----12-10-----------------||---------------------5*------------10------------10---------||--0000-----1-0-0-0-0---5*----------------------8-------8-7--||--0000-1-3---0-0-0-0-----5*-0---------------10------10------|
|----------------------------------------------------||----------------------------------------------------||------------------------------10-9----12-10---------||---------------------5*------------10-------10-10/--||--0000-----1-0-0-0-0---5*---------------------------||--0000-1-3---0-0-0-0-----5*-0-----------------------|
bass plays the route notes and guitar plays somethin like this
|---------------------||--10-----------------||-----10-9-9h10p9-----||-----------------10--| x6|---------------------||---------------------|
verse
|--------------------------||--------------------------||--------------------------||--7p0-10p0-9p0-7h8p7-000--| x16|--------------------------||--------------------------|
rythum guitar plays somethin like this |-------------------------------||-------------------------------||-------------------------------||-------------------------------| x4|--0000--000-000-6666--666-666--||--0000--000-000-6666--666-666--|
chorus
|--------------------------------||--------------------------------||--333333-555555-----------------||--333333-555555-000000-222-333--| x4|--111111-333333-000000-222-333--||----------------000000-222-333--|
im not sure about the lead bitbut its somethin like this|------------------------------------------||-----------17-18-17h18p17----17h18p17-----||--19-17-19----------------17----------17--||------------------------------------------| x4|------------------------------------------||------------------------------------------|
|---------------------------------------||--17-----------------------------------||--------------------17-19-17-17-19-17--||-----19-17-17-19-17--------------------| x4|---------------------------------------||---------------------------------------|
|-----------------------------||-----------------------------||-----------------------------||---------------------5*------||--0000-----1-0-0-0-0---5*----||--0000-1-3---0-0-0-0-----5*--|
|------------------------------------------------------------||------------------------------------------------------------||------------------------------10-9----12-10-----------------||---------------------5*------------10------------10---------||--0000-----1-0-0-0-0---5*----------------------8-------8-7--||--0000-1-3---0-0-0-0-----5*-0---------------10------10------|
|-------------------------------------------------------------||-------------------------------------------------------------||------------------------------10-9----12-10----12-10-9-10-9--||---------------------5*------------10-------10---------------||--0000-----1-0-0-0-0---5*------------------------------------||--0000-1-3---0-0-0-0-----5*-0--------------------------------|
break down bit|---------------------------------------------------------||---------------------------------------------------------||---------------------------------------------------------||---------------------------------------------------------||--0000-0000-0000-0000-0000-0000---------1p0--------------||--0000-0000-0000-0000-0000-0000-1p0-3p0-----3p0-1p0-3p0--|
|-----------------------------------------------||-----------------------------------------------||-----------------------------------------------||-----------------------------------------------||--0000-0000-0000-0000-0000-0000---------1p0-3--||--0000-0000-0000-0000-0000-0000-1p0-3p0-----3--|
chorus|--------------------------------||--------------------------------||--333333-555555-----------------||--333333-555555-000000-222-333--| x4|--111111-333333-000000-222-333--||----------------000000-222-333--|
lead bit|------------------------------------------||-----------17-18-17h18p17----17h18p17-----||--19-17-19----------------17----------17--||------------------------------------------| x4|------------------------------------------||------------------------------------------|
|---------------------------------------||--17-----------------------------------||--------------------17-19-17-17-19-17--||-----19-17-17-19-17--------------------| x4|---------------------------------------||---------------------------------------|
|-----------------------------||-----------------------------||-----------------------------||--666666666666-555555555555--| x2|--666666666666-555555555555--||--666666666666-555555555555--|
|---------------------------------------------------------------------------||--18-17----18-17----18-17----18-17----19-18-17-19-18-17-19-18-17-19-18-17--||--------17-------17-------17-------17--------------------------------------||---------------------------------------------------------------------------| x2|---------------------------------------------------------------------------||---------------------------------------------------------------------------|
|------||------||------||--0~--||--0~--||--0~--|
drums come in again
breakdown 2|-------------------------------------------------------||-------------------------------------------------------||-------------------------------------------------------||-------------------------------------------------------| x2|--000000-0-0-0-000000-0-0-0-000000-0-0-0-000000-1-3-1--||--000000-0-0-0-000000-0-0-0-000000-0-0-0-000000-1-3-1--|
|-------------------| |---------------||----------12--14---| |---------------||----------14b-16b--| |---------------||-------------------| x3 |---------------| x1|--0000000----------| |-000000-1-3-1--||--0000000----------| |-000000-1-3-1--|
|-----------------------------------||-----------------------------------||-----------------------------------||-----------------------------------||--0000000-0000000-0000000-0000000--||--0000000-0000000-0000000-0000000--|
chorus|------------------------------||------------------------------||--3-----5---------------------||--3-----5-----000000-222-333--||--1-----3-----000000-222-333--||--------------000000-222-333--|
|--------------------------------||--------------------------------||--333333-555555-----------------||--333333-555555-000000-222-333--| x4|--111111-333333-000000-222-333--||----------------000000-222-333--|
|------------------||------------------||--3-----5---------||--3-----5-----0~--||--1-----3-----0~--||--------------0~--|
lead bit|------------------------------------------||-----------17-18-17h18p17----17h18p17-----||--19-17-19----------------17----------17--||------------------------------------------| x3|------------------------------------------||------------------------------------------|
|---------------------------------------||--17-----------------------------------||--------------------17-19-17-17-19-17--||-----19-17-17-19-17--------------------| x7|---------------------------------------||---------------------------------------|
that it cheers for checking it out hope u enjoy playing it :)
Tap to rate this tab
 
# A B C D E F G H I J K L M N O P Q R S T U V W X Y Z