Misc Unsigned Bands - Fear The Jackalope - Camel Jockey tab

Fear The Jackalope
Breach [EP]- Camel Jockey
Written and Tabbed by Kyle E.
Open Csus2 {C,G,C,G,C,D}


Opening riff, and Later riff [Riff A]

||-------------------------------------------------|||-------------------------------------------------|||-------------------------------------------------|||--0-0-0-0-000--0-0---10-10-10-101010-10-10-------|||--0-0-0-0-000--0-0----8--8--8---888---8--8-------|||--0-0-0-0-000--0-0----8--8--8---888---8--8-------| . . . . ... . . . . . ... . .
|------------------------------------------|||------------------------------------------|||------------------------------------------|||--5-5-5-5--555--5-5---7-7-7-8-8-7-*7b8b7--|| Repeat|--3-3-3-3--333--3-3---5-5-5-5-5-5---------|||--3-3-3-3--333--3-3---5-5-5-5-5-5---------||
. . . . ... . . . . . . . .[On second]|------------------------------------------|||------------------------------------------|||------------------------------------------|||--5-5-5-5--555--5-5---7-7-7-8-8-7-7~~-----|||--3-3-3-3--333--3-3---5-5-5-5-5-5-5~~-----|||--3-3-3-3--333--3-3---5-5-5-5-5-5-5~~-----|| . . . . ... . . . . . . . .
Opening Melody solo thing [Played live w/ wah] [Solo]
||-------------------------------------------------------|||-------------------------------------------------------|||-------------------------------------------------------|||--/8~-7~--------------------3/5\3p0--------------------|||--------8~-888\3~--3/5\3p0----------3~p0-3/5\3p0~------|||-------------------------------------------------------|
|------------------------------------------------------------------|||------------------------------------------------------------------|||------------------------------------------------------------------|||-/8~-/10~-/13~--131313/15/17\15~- 13h15p13h17p15p13~ 15b17b15~\---|||------------------------------------------------------------------|||------------------------------------------------------------------||
Play [Riff A] again [4x] leading into: Breakdown [Testimonies]
||-------------------------------------------------|||-------------------------------------------------|||-------------------------------------------------|||-\\\\\\---0-0-0-0~----0-0-0-0-00~---0-1-0-1~-----|||-\\\\\\---0-0-0-0~----0-0-0-0-00~---0-1-0-1~-----|||-\\\\\\---0-0-0-0~----0-0-0-0-00~---0-1-0-1~-----|
. . . . . . . . .. . . . .|-----------------------------|||-----------------------------|||-----------------------------|||--0-1-0--1-000-0--\\\\\------|||--0-1-0--1-000-0--\\\\\------|||--0-1-0--1-000-0--\\\\\------|| . . . . ... .
1/2 of Breakdown [BD A]
||------------------------------------------|||------------------------------------------|||------------------------------------------|||------------------------------------------| Repeat [2x]||--0-1-0-00--0--------0-1-0-00-0-----------|||--0-1-0-00--0-*3b6---0-1-0-00-0-*3b6b3----| . . . .. . . . . .. .
2/2 of Breakdown [BD B]|------------------------------------------------------|||------------------------------------------------------|||------------------------------------------------------|||--0-1-0--0-000-0-\\\\\\-------0-1-0--0-000-0-/////----|| Repeat [2x]|--0-1-0--0-000-0-\\\\\\-------0-1-0--0-000-0-/////----|||--0-1-0--0-000-0-\\\\\\-------0-1-0--0-000-0-/////----|| . . . . ... . . . . . ... .
Breakaway riff, [Riff B] continues until change
||-----------------------------------------------|||-----------------------------------------------|||-----------------------------------------------|||-----------------------------------------------|||-----8-12--8-12-8-12\-----7-5--7-5-3h5p3p0-----|||--00--0--00-0--0-0------33-3-33-3-0------------|
.. . .. . . . .. . .. . .|---------------------------------------------------||---------------------------------------------------||---------------------------------------------------||--------------------------------------333p0--------||-----8-12--8-12-8-12\-----7-5--7-5----333p0--------||--00--0--00-0--0-0------33-3-33-3-0---333p0--------|
.. . .. . . . .. . .. . .[Then the change] [Riff C]|-----------------------------------------------||-----------------------------------------------||-----------------------------------------------||-----------------------------------------------||-----7-8~---7-8~---8-10~---8—10/12\10~---------||--05555---05555--77777---7777------------------| .. . .. . .. . .. .
Repeat [Riff B] Until neat thingy [Riff D]
Neat Thingy [Riff D]||---------------------------------------------------|||---------------------------------------------------|||---------12p10-----12~------8p7---10p8-------------|||--------------12p10------------8p7-----10p8--------|||--0-0-0---------------0-0-0------------------------|||--0-0-0---------------0-0-0------------------------|
. . . . . .|------------------------------------------------------------|||------------------------------------------------------------|||-------12p10-----12b13b12~----------------------------------|||------------12p10-------------------------------------------|||--0-0-0-------------------0-0-0--------5h7h8-------7h8h10---|||--0-0-0-------------------0-0-0---5h7h8------7h8h10---------|| . . . . . .
Repeat 2x, then just the first half [While scream] Then “Drop The Nuke” [Let feedback grow with drum fill] Riff A [4x] Outro Solo Thingy [Riff E]
|-----------------------------------||-----------------------------------||-----------------------------------||-------7h8p7-10p8p7----------------||--5h7h8-------------10p8p7h8~------||-----------------------------------|
|-----------------------------------||-----------------------------------||-----------------------------------||---------------7h8p7-10p8p7--------||---------7h8h10------------8~\-----||---7h8h10--------------------------|
Yay! Structure: Riff A [2x] Solo Riff A [4x] BD A BD B Riff C Riff D Riff C Riff D [Pause] Riff A[4x] Riff E
Tap to rate this tab
 
# A B C D E F G H I J K L M N O P Q R S T U V W X Y Z