Misc Unsigned Bands - Elexa - Just Keep Swimming tab

A.|---------------------------------------------------------------| |---------------------------------------------------------------| |---------------------------------------------------------------| |------------------5-------5-7-8--------------------------------| |--5-8-4-5-8-7-4-5---8-7-8--------------------------------------| |00-0-0-0-0-0-0-0-0-0-0-0-0-0-0---------------------------------|
|---------------------------------------------------------------| |---------------------------------------------------------------| |---------------------------------------------------------------| |------------------8-7-5-7---5----------------------------------| |--5-8-4-5-8-7-4-5---------8---7--------------------------------| |88-8-8-8-8-8-8-8-8-8-8-8-8-8-8---------------------------------|
x2 from A.
B.|---------------------------------------------------------------| |---------------------------------------------------------------| |---------------------------------------------------------------| |------------------------87575-5--------------------------------| |--5588558855885544774477-----8---------------------------------| |00-------------------------------------------------------------|
|---------------------------------------------------------------| |---------------------------------------------------------------| |---------------------------------------------------------------| |------------------------------7--------------------------------| |--5588558855885544774477457578---------------------------------| |00-------------------------------------------------------------|
x2 from B.
C.|---------------------------------------------------------------| |---------------------------------------------------------------| |---------------------------------------------------------------| |0--------------------------------------------------------------| |0---------------5-8-754----------------------------------------| |0--0-000-000-000-0-0-------------------------------------------|
|---------------------------------------------------------------| |---------------------------------------------------------------| |---------------------------------------------------------------| |8-----------------8-75-----------------------------------------| |8---------------5-----8----------------------------------------| |8--8-888-888-888-8-8--8----------------------------------------|
|---------------------------------------------------------------| |---------------------------------------------------------------| |---------------------------------------------------------------| |7--------------------------------------------------------------| |7---------------8-7-578----------------------------------------| |7--7-777-777-777-7-7-------------------------------------------|
C1|---------------------------------------------------------------| |---------------------------------------------------------------| |---------------------------------------------------------------| |5-55-----8888888-----------------------------------------------| |5-55-8-7-8888888-----------------------------------------------| |5-55--5-58888888-----------------------------------------------|
C2|---------------------------------------------------------------| |---------------------------------------------------------------| |---------------------------------------------------------------| |5-55-----3333333-----------------------------------------------| |5-55-8-7-3333333-----------------------------------------------| |5-55--5-53333333-----------------------------------------------|
x2 from C (end with C1 first time, c2 second time)
D.|---------------------------------------------------------------| |---------------------------------------------------------------| |---------------------------------------------------------------| |---------------------------------------------------------------| |---------------------------------------------------------------| |0000-0000000--00000000000-0000-0000000--Just Keep Swimming-----|
x5 from D.
E.|---------------------------------------------------------------| |---------------------------------------------------------------| |---------------------------------------------------------------| |---------------------------------------------------------------| |5858-45787548-5858-45787548------------------------------------| |----------------------------8----------------------------------|
x2 from E.
F.|---------------------------------------------------------------| |---------------------------------------------------------------| |---------------------------------------------------------------| |0--------------------------------------------------------------| |0--------------------------------------------------------------| |0--------------------------------------------------------------|
Tap to rate this tab
 
# A B C D E F G H I J K L M N O P Q R S T U V W X Y Z