Misc Unsigned Bands – Nakras - Dark Age tab

Hello :)
This song is made by me. It dosn't have any text, just the guitar. It sounds realy 
good if you play i fast.
Please comment.

Enjoy




|--5-------5-------5-------5-------|--3-------3-------3-------3-------||----------------------------------|----------------------------------||----------------------------------|----------------------------------||----5---5---5---5---5---5---5---5-|----3---3---3---3---3---3---3---3-||------5-------5-------5-------5---|------3-------3-------3-------3---||----------------------------------|----------------------------------|
--|--5-------5-------5-------5-------|--3-------3-------3-------3-------||----------------------------------|----------------------------------||----------------------------------|----------------------------------||----5---5---5---5---5---5---5---5-|----3---3---3---3---3---3---3---3-||------5-------5-------5-------5---|------3-------3-------3-------3---||----------------------------------|----------------------------------|
--|--5-------5-------5-------5-------|--7-------7-------7-------7-------||----------------------------------|----------------------------------||----------------------------------|----------------------------------||----5---5---5---5---5---5---5---5-|----7---7---7---7---7---7---7---7-||------5-------5-------5-------5---|------7-------7-------7-------7---||----------------------------------|----------------------------------|
--|--5-------5-------5-------5-------|--7-------7-------7-------7-------||----------------------------------|----------------------------------||----------------------------------|----------------------------------||----5---5---5---5---5---5---5---5-|----7---7---7---7---7---7---7---7-||------5-------5-------5-------5---|------7-------7-------7-------7---||----------------------------------|----------------------------------|
--|--7-6-|--5-------5-------5-------5-------||------|----------------------------------||------|----------------------------------||------|----5---5---5---5---5---5---5---5-||------|------5-------5-------5-------5---||------|----------------------------------|
--|--5-4-|--3-------3-------3-------3-------||------|----------------------------------||------|----------------------------------||------|----3---3---3---3---3---3---3---3-||------|------3-------3-------3-------3---||------|----------------------------------|
--|--3-4-|-5-------5-------5-------5-------||------|---------------------------------||------|---------------------------------||------|---5---5---5---5---5---5---5---5-||------|-----5-------5-------5-------5---||------|---------------------------------|
--|--5-4-|--3-------3-------3-------3-------||------|----------------------------------||------|----------------------------------||------|----3---3---3---3---3---3---3---3-||------|------3-------3-------3-------3---||------|----------------------------------|
--|--3-4-|-5-------5-------5-------5-------||------|---------------------------------||------|---------------------------------||------|---5---5---5---5---5---5---5---5-||------|-----5-------5-------5-------5---||------|---------------------------------|
--|--5-6-|--7-------7-------7-------7-------||------|----------------------------------||------|----------------------------------||------|----7---7---7---7---7---7---7---7-||------|------7-------7-------7-------7---||------|----------------------------------|
--|--7-6-|--5-------5-------5-------5-------||------|----------------------------------||------|----------------------------------||------|----5---5---5---5---5---5---5---5-||------|------5-------5-------5-------5---||------|----------------------------------|
--|--5-6-|--7-------7-------7-------7-------||------|----------------------------------||------|----------------------------------||------|----7---7---7---7---7---7---7---7-||------|------7-------7-------7-------7---||------|----------------------------------|
--|--7-6-|--5-------5-------5-------5-------||------|----------------------------------||------|----------------------------------||--7-6-|----5---5---5---5---5---5---5---5-||--7-6-|------5-------5-------5-------5---||------|----------------------------------|
--|--5-4-|--3-------3-------3-------3-------||------|----------------------------------||------|----------------------------------||--5-4-|----3---3---3---3---3---3---3---3-||--5-4-|------3-------3-------3-------3---||------|----------------------------------|
--|--3-4-|--5-------5-------5-------5-------||------|----------------------------------||------|----------------------------------||--3-4-|----5---5---5---5---5---5---5---5-||--3-4-|------5-------5-------5-------5---||------|----------------------------------|
--|--5-4-|--3-------3-------3-------3-------||------|----------------------------------||------|----------------------------------||--5-4-|----3---3---3---3---3---3---3---3-||--5-4-|------3-------3-------3-------3---||------|----------------------------------|
--|--3-4-|--5-------5-------5-------5-------||------|----------------------------------||------|----------------------------------||--3-4-|----5---5---5---5---5---5---5---5-||--3-4-|------5-------5-------5-------5---||------|----------------------------------|
--|--5-6-|--7-------7-------7-------7-------||------|----------------------------------||------|----------------------------------||--5-6-|----7---7---7---7---7---7---7---7-||--5-6-|------7-------7-------7-------7---||------|----------------------------------|
--|--7-6-|--5-------5-------5-------5-------||------|----------------------------------||------|----------------------------------||--7-6-|----5---5---5---5---5---5---5---5-||--7-6-|------5-------5-------5-------5---||------|----------------------------------|
--|--5-6-|--7-------7-------7-------7-------||------|----------------------------------||------|----------------------------------||--5-6-|----7---7---7---7---7---7---7---7-||--5-6-|------7-------7-------7-------7---||------|----------------------------------|
--|--7-6-|--5-------5-------5-------5-------||------|----------------------------------||------|----------------------------------||--7-6-|----5---5---5---5---5---5---5---5-||--7-6-|------5-------5-------5-------5---||------|----------------------------------|
--|--5-4-|--3-------3-------3-------3-------||------|----------------------------------||------|----------------------------------||--5-4-|----3---3---3---3---3---3---3---3-||--5-4-|------3-------3-------3-------3---||------|----------------------------------|
--|--3-2-|----1-----------||------|----------------||------|----------------||------|---------1------||------|--------------1-||------|----------------|
Please rate this tab:
x1.0