Misc Unsigned Bands – Klovner I Kamp - I Seng Paa Hospital tab

Klovner I Kamp - I Seng Paa Hospitalet

Tuning: Standard & No Capo

Tabbed By: Lars Sagen



|-------0-:-------0-:-------0-:-------0-----------||-----1---:-----1---:-----1---:-----1-------------||---2-----:---2-----:---2-----:---2---------------||---------:---------:---------:-------------------||-0-------:---------:---------:---------2b3r2p0---||---------:-3-------:-2-------:-1---------------3-|
|-------0-:-------0-:-------0-:-------0-0-0---||-----1---:-----1---:-----1---:-----1-------3-||---2-----:---2-----:---2-----:---2-----------||---------:---------:---------:---------------||-0-------:---------:---------:---------------||---------:-3-------:-2-------:-1-------------|
|-0------0-:-------0-0-0---:-0-----0-:-------0-0-0---||------1---:-----1-------3-:-----1---:-----1-------3-||---2------:---2-----------:---2-----:---2-----------||----------:---------------:---------:---------------||-0--------:---------------:---------:---------------||----------:-3-------------:-2-------:-1-------------|
|-0------0-:-------0-0-0---:-0-----0-:-------0-----------||------1---:-----1-------3-:-----1---:-----1-------------||---2------:---2-----------:---2-----:---2---------------||----------:---------------:---------:-------------------||-0--------:---------------:---------:---------2b3r2p0---||----------:-3-------------:-2-------:-1---------------3-|
|-------0-:-------0-:-------0-:-------0-----------||-----1---:-----1---:-----1---:-----1-------------||---2-----:---2-----:---2-----:---2---------------||---------:---------:---------:-------------------| X3|-0-------:---------:---------:---------2b3r2p0---||---------:-3-------:-2-------:-1---------------3-|
|-------0-:-------0-:-------0-:-------0-0-0---||-----1---:-----1---:-----1---:-----1-------3-||---2-----:---2-----:---2-----:---2-----------||---------:---------:---------:---------------||-0-------:---------:---------:---------------||---------:-3-------:-2-------:-1-------------|
|-0-----0-:-------0-:-------0-:-------0-0---||-----1---:-----1---:-----1---:-----1-----3-||---2-----:---2-----:---2-----:---2---------||---------:---------:---------:-------------||-0-------:---------:---------:-------------||---------:-3-------:-2-------:-1-----------|
|-0-----0-:-------0-:-------0-:-------0-0---||-----1---:-----1---:-----1---:-----1-----3-||---2-----:---2-----:---2-----:---2---------||---------:---------:---------:-------------||-0-------:---------:---------:-------------||---------:-3-------:-2-------:-1-----------|
|-0-----0-:-------0-0-0---:-0-----0-:-------0-0-0---||-----1---:-----1-------3-:-----1---:-----1-------3-||---2-----:---2-----------:---2-----:---2-----------||---------:---------------:---------:---------------||-0-------:---------------:---------:---------------||---------:-3-------------:-2-------:-1-------------|
|-0-----0-:-------0-:-------0-:-------0-----------||-----1---:-----1---:-----1---:-----1-------------||---2-----:---2-----:---2-----:---2---------------||---------:---------:---------:-------------------||-0-------:---------:---------:---------2b3r2p0---||---------:-3-------:-2-------:-1---------------3-|
|-------0-:-------0-0-0---:-0-----0-:-------0-0-0---||-----1---:-----1-------3-:-----1---:-----1-------3-||---2-----:---2-----------:---2-----:---2-----------||---------:---------------:---------:---------------||-0-------:---------------:---------:---------------||---------:-3-------------:-2-------:-1-------------|
|-0-----0-:-------0-:-------0-:-------0-0-0---||-----1---:-----1---:-----1---:-----1-------3-||---2-----:---2-----:---2-----:---2-----------||---------:---------:---------:---------------||-0-------:---------:---------:---------------||---------:-3-------:-2-------:-1-------------|
|-0-----0-:-------0-0-0---:-0-----0-:-------0-0-0---||-----1---:-----1-------3-:-----1---:-----1-------3-||---2-----:---2-----------:---2-----:---2-----------||---------:---------------:---------:---------------| X3|-0-------:---------------:---------:---------------||---------:-3-------------:-2-------:-1-------------|
|-0-----0-:-------0-0-0---:-0-----0-:------0-||-----1---:-----1-------3-:-----1---:----1---||---2-----:---2-----------:---2-----:--2-----||---------:---------------:---------:--------||-0-------:---------------:---------:--------||---------:-3-------------:-2-------:-1------|
Email: lars.sagen@hotmail.com
Please rate this tab:
x1.0