Misc Unsigned Bands - Jasper Leo Vega - Demons Cathedral tab

Hiya guys, just a tab from me to you, as I am insanely bored ^_^


Intro:

PMute------------------------------------------------------------------------|------------------------------------------------------------------------|--4-4-4----------------9-9-9---------------------4-4-4------------------|--4-4-4----------(X4)--9-9-9---------------(X2)--4-4-4-----------(X2)---|--2-2-2--0-2-4-0-------7-7-7--5-5-5-5-5-5--------2-2-2--0-2-4-0---------|------------------------------------------------------------------------|
Verse:
-------------------------------------|-------------------------------------|-------------------------------3-4---|----4-----3---2------4-----3-4-------| (X4)--2---5-2---4---3--2---5-2-----------|-------------------------------------|
Chorus Again:
PMute------------------------------------------------------------------------|------------------------------------------------------------------------|--4-4-4----------------9-9-9---------------------4-4-4------------------|--4-4-4----------(X4)--9-9-9---------------(X2)--4-4-4-----------(X2)---|--2-2-2--0-2-4-0-------7-7-7--5-5-5-5-5-5--------2-2-2--0-2-4-0---------|------------------------------------------------------------------------|
Verse again:
-------------------------------------|-------------------------------------|-------------------------------3-4---|----4-----3---2------4-----3-4-------| (X4)--2---5-2---4---3--2---5-2-----------|-------------------------------------|
Bridge:
-------------------------------0----------------------------------------|-------------------------------0----------------------------------------|-----4------4------4-----4-----2------4-----4-----4-3-2-----------------|-------------------------------2------------------------4-3-2-0---------|-2-2----2-2----2-2---2-2---2-2-0--2-2---2-2---2-2-----------------------|------------------------------------------------------------------------|
-------------------------------0----------------------------------------|-------------------------------0----------------------------------------|-----4------4------4-----4-----2------4-----4-----4-3-2-----------------|-------------------------------2------------------------4-3-2-0---------|-2-2----2-2----2-2---2-2---2-2-0--2-2---2-2---2-2-----------------------|------------------------------------------------------------------------|
-------------------------------5----------------------------------------|-------------------------------5----------------------------------------|-----9------9------9-----9-----7------9-----9-----9-8-7-----------------|-------------------------------7------------------------9-8-7-5---------|-7-7----7-7----7-7---7-7---7-7-5--7-7---7-7---7-7-----------------------|------------------------------------------------------------------------|
-------------------------------0----------------------------------------|-------------------------------0----------------------------------------|-----4------4------4-----4-----2------4-----4---------------------------|-------------------------------2----------------------------------------|-2-2----2-2----2-2---2-2---2-2-0--2-2---2-2---2-2-----------------------|------------------------------------------------------------------------|
-------------------------------------|-------------------------------------|-4-3-2/---2/---------------------2---|--------4----4-3-2-4-3-2---2-3-4-----|-------------------------4-----------|-------------------------------------|
Chorus again:
PMute------------------------------------------------------------------------|------------------------------------------------------------------------|--4-4-4----------------9-9-9---------------------4-4-4------------------|--4-4-4----------(X4)--9-9-9---------------(X2)--4-4-4-----------(X2)---|--2-2-2--0-2-4-0-------7-7-7--5-5-5-5-5-5--------2-2-2--0-2-4-0---------|------------------------------------------------------------------------|
Verse 2:
--------------------------------------|--------------------------------------|---------------------------------8-9--|----9------8---7------9------8-9------| (X4)--7---10-7---9---8--7---10-7----------|--------------------------------------|
Shorter chorus:
-------------------|-------------------|--4-4-4\----4-4-4\-|--4-4-4\----4-4-4\-|--2-2-2\----2-2-2\-|-------------------|
Bridge 2:
-------------------------------0--------------------|-------------------------------0--------------------|-----4------4------4-----4-----2------4-----4-------|-------------------------------2--------------------|-2-2----2-2----2-2---2-2---2-2-0--2-2---2-2---2-2---|----------------------------------------------------|
-------------------------------0--------------------|-------------------------------0--------------------|-----4------4------4-----4-----2------4-----4-------|-------------------------------2--------------------|-2-2----2-2----2-2---2-2---2-2-0--2-2---2-2---2-2---|----------------------------------------------------|
-------------------------------5--------------------|-------------------------------5--------------------|-----9------9------9-----9-----7------9-----9-------|-------------------------------7--------------------|-7-7----7-7----7-7---7-7---7-7-5--7-7---7-7---7-7---|----------------------------------------------------|
-------------------------------0--------------------|-------------------------------0--------------------|-----4------4------4-----4-----2------4-----4-------|-------------------------------2--------------------|-2-2----2-2----2-2---2-2---2-2-0--2-2---2-2---2-2---|----------------------------------------------------|
-------------------------------------|-------------------------------------|-4-3-2/---2/---------------------2---|--------4----4-3-2-4-3-2---2-3-4-----|-------------------------4-----------|-------------------------------------|
Outro:
-------------------0----------------0--------------------------------------|-------------------0----0-----0-------0---0--------------------------------|-4-4-4----------4--3------3-----3-------3---3-----4-4-4----------4---------|-4-4-4----------2--4--------4-----4-----------4---4-4-4----------4---------|-2-2-2--0-2-4-0-2--4------------------------------2-2-2--0-2-4-0-2--/--14--|-------------------2-------------------------------------------------------|
Thanks for the support ^_^ Jasper Leo Vega
Tap to rate this tab
 
# A B C D E F G H I J K L M N O P Q R S T U V W X Y Z