Misc Unsigned Bands – Drewsif Stalins Musical Endeavours - Affection tab

Affection (Feat. Tre Watson)
By Drewsif Stalin's Musical Endeavours.
Written by Drewsif Stalin and Tre Watson

------------------

Tuning - This can be played on a 6 string tuned to standard, 1 half step down (Eb-
Ab-Db-Gb-Bb-eb), as it is played on only 4 strings total.

I don't know any scales so the faster parts might be a tad off but they sound accurate to me.
Email me at blackflagparade@gmail.com if there's anything I did wrong and I will correct it.
Thanks!

------------------

Key -

/ - Slide up
\ - Slide down
~ - Vibrato
> - Picked quickly
h - Hammer on
p - Pull off
(x)- Played [x] many times

------------------

Intro

|----18----15----15-16-15-13-15-13-11-10-11----||----------------------------------------------||----15----12----12-13-12-10-12-10-8--7--8-----||----------------------------------------------||------------------------------(ad infinitum)--||----------------------------------------------|
Break before solo
|----------------------------------------------||----------------------------------------------||----15-----12~----12/13\12\10/12\10\8\7/8-----||----------------------------------------------||------------------------------(8x)------------||----------------------------------------------|
Solo
|---/18-18-18-15-15-15-15-15-16-15h16p15----15-----------------------||-----------------------------------------18----18-16h18p16\15/16----||--------------------------------------------------------------------||--------------------------------------------------------------------||--------------------------------------------------------------------||--------------------------------------------------------------------|
|--/18-18-18-15-------15-16-15----15-----------15h16h18--------15h16h18-20--||-------------------18-----------------15h16h18--------15h16h18-------------||---------------------------------------------------------------------------||---------------------------------------------------------------------------||---------------------------------------------------------------------------||---------------------------------------------------------------------------|
|----18----16--15-------------||------------------16---------||----------------------15-----||-----------------------------||-----------------------------||-----------------------------|
|--------15h18p15------15h18p15------15h18p15------15h18p15------15h18----||------16--------16--16--------16--16--------16--16--------16--16---------||----15------------15------------15------------15------------15-----------||-------------------------------------------------------------------------||-------------------------------------------------------------------------||-------------------------------------------------------------------------|
|----16----15----||----------------||----------------||----------------||----------------||----------------|
|--15-16-18--16--15--------------------------------------------------------||--------------------16--15--15h16p15\13-----------------------------------||------------------------------------------15---13-12---13-12-13/15-13-12--||--------------------------------------------------------------------------||--------------------------------------------------------------------------||--------------------------------------------------------------------------|
|----------------------------------------------------------------||------------13>15>16--------13>15>16-15/16-15-13--13h15p13------||----12>13>15--------12>13>15------------------------------15----||----------------------------------------------------------------||----------------------------------------------------------------||----------------------------------------------------------------|
|-----------------------------------------------------13(2)>15(2)>16(2)15---||------------------------------------13(2)>15(2)>16(2)----------------------||-------------------12(2)>13(2)>15(2)---------------------------------------||--12(2)>13(2)>15(2)--------------------------------------------------------||---------------------------------------------------------------------------||---------------------------------------------------------------------------|
|----16-15-13----------18-16-15--------------------------||-------------16-15-13----------18-16-15-13----13-15-16--||-------------------------------------------15-----------||--------------------------------------------------------||--------------------------------------------------------||--------------------------------------------------------|
Outro
|----18----15----15-16-15-13-15-13-11-10-11----||----------------------------------------------||----15----12----12-13-12-10-12-10-8--7--8-----||----------------------------------------------||------------------------------(ad infinitum)--||----------------------------------------------|
http://drewsifstalin.bandcamp.com/ http://trewatson.bandcamp.com/
Please rate this tab:
x1.0