Misc Unsigned Bands - The Prairie Cartel - Jump Like Chemicals tab

-----------------------------------------------------------------------------
			     Jump like Chemicals - The Prairie Cartel
-----------------------------------------------------------------------------

Tabbed by: Marc
Email: MdePari92@aol.com

Tuning: Standard


|------------------------||------------------------||------------------------||------4---4h5--4-2-4----||--2-2---2---------------||------------------------|
|------------------------||------------------------||------------------------||------4---4h5--4-2-4----||------------------------||--3-3---3---------------|
|------------------------||------------------------||------------------------||------4---4h5--4-2-4----||--0-0---0---------------||------------------------|
|------------------------||------------------------||------------------------||------4---5---5h7-------||------------------------||--0-0---0---0-----------|
(Chorus)
|--------------------------------||--------------------------------||--4-------------2---------------||--4(x8)--5------2(x8)--2--------||--2------5(x8)--0------2(x8)----||---------3-------------0--------|
|--------------------------------||--------------------------------||--------------------------------||--5-------7---------------------||--5(x16)--7(x16)----------------||--3-------5---------------------|
(Bridge)
e|-------------------------------|B|-------------------------------|G|--2------xx--------------------|D|--2(x11)-xx--5--7--------------|A|--4------xx--5~-7~-------------|E|-------------3--5--------------|
That's about all i got so far. figure out the strumming. It's better than nothing since you cant find a tab for this anywhere. i will update it in the future when it's not 4 in the morning. http://www.myspace.com/theprairiecartel
Tap to rate this tab
 
# A B C D E F G H I J K L M N O P Q R S T U V W X Y Z