Misc Unsigned Bands - Antonio Jose - Sonata 4th Mvt Allegro Con Brio tab

Antonio Jose Sonata 4th movement
Allegro con brio

forte||---------------------|-------------------|||---3-3-3-3----5------|-------------------|||---3-3-3-3------2-5--|--3----------------|||---2-2-2-2-----------|--------3-2===-----|||---------------------|----5-4-----0-3-2--|||---0-0-0-0-----------|-------------------|
|------------------|------------------||-------------5-3--|------------------||---------5-3------|-5-3-2------------||-2-0-5-3----------|-------5-3-2------||------------------|-------------5-3--||------------------|------------------|
f|--5-5-5-5----6-----|------------------||--5-5-5-5--------6-|-5-------0====----||--7-7-7-7------7---|-------5----------||--5-5-5-5----------|---7-6-----0-3-2--||-------------------|------------------||-------------------|------------------|
|-------------3----|------------------||---------5-3---6--|-5-3--------------||-2---5-4----------|-----5-4-2--------||---6--------------|-----------5-3-2--||------------------|------------------||------------------|------------------|
f |-------------------|-----------5-3-6--||--3-3-3-3----5-----|---3-2-6-5--------||--3-3-3-3------2-5-|-3----------------||--2-2-2-2----------|------------------||-------------------|------------------||--0-0-0-0----------|------------------|
f|--5-5-5-5----6-----|------------------||--5-5-5-5--------6-|-5-------0=====---||--7-7-7-7------7---|-------5----------||--5-5-5-5----------|---7-6-----0-3-2--||-------------------|------------------||-------------------|------------------|
f f |-------------------|--5-5-5-5-----6---0-||--3-3-3-3----5-8-6-|--5-5-5-5-------6---||--3-3-3-3----------|--7-7-7-7-----------||--2-2-2-2----------|--5-5-5-5-----------||-------------------|--------------------||--0-0-0-0----------|--------------------|
|--------------------|-------------------||--3-3-3-3----5------|-------------------||--3-3-3-3------2-5--|--3----------------||--2-2-2-2-----------|--------3-2===-----||--------------------|----5-4-----0-3-2--||--0-0-0-0-----------|-------------------|
|------------------|------------------||--------------5-3-|------------------||----------5-3-----|-5-3-2------------||--2-0-5-3---------|-------5-3-2------||------------------|-------------5-3--||------------------|------------------|
|-----------------|------------------||-----------------|------------------||-----------------|------------------||-----------------|------------------||-1-0-------------|---------------0--||-----3-1-0-1-0-1-|-0-1-0-1-0-1h3----|
|--------------1-2--|-2p1-0------------||----2-----1--------|-------2----------||--------2---3------|---------3--------||------3------------|-----------4------||--1----------------|-------------4----||-------------------|---------------2--|
|--------------1-2--|-2p1-0------------||----2-----1--------|-------2----------||--------2---3------|---------3p0------||------3------------|-------------2----||--1----------------|---------------0--||-------------------|------------------|
|------------------|------------------||-------------2-3--|---------2s3-5-6--||---------1h2------|-----0------------||-----2-0----------|---0---3----------||---0--------------|-0----------------||-1----------------|------------------|
|-------------------|--------------9-10-||---------5s6-9-10--|---------9h10------||-----3-------------|-----9-7-----------||---3---7-----------|---7---------------||-5-----------------|-8-----------------||-------------------|-------------------|
|-10=======-----------|-8=====-----------||-------8----8======--|---7-----5=====---||----10--------6-10---|-----7-----5------||---------10--------9-|-------8-----5----||---------------------|---------------0--||---------------------|------------------|
|-7=====-----------|-5====------------||-----5---5=====---|---4-----2=====---||---7-------3-7----|-----4-----2------||-------7-------6--|-------3-----2----||------------------|---------------0--||------------------|------------------|
forte|-----------3-3------|---------7-7-5-5--||-------0-0-4-4-1-1--|-4-4-5-5-9-9-7-7--||-------1-1-----2-2--|-5-5-6-6----------||--------------------|------------------||--------------------|------------------||--1-----------------|-0----------------|
|--5-5-----4-4------|--2-2-----0-0------||--7-7-2-2-5-5-3-3--|--3-3-----2-2-0-0--||------3-3-----4-4--|------3-3-----1-1--||-------------------|------5-5----------||-------------------|-------------------||--0----------------|--0----------------|
|-------------------|------2-2-0-0------||--3-3-----2-2------|--0-0-3-3-2-2------||--4-4-----2-2------|--1-1---------3-3--||------3-3-----4-4--|--------------5-5--||------4-4-----5-5--|-------------------||--0----------------|--0----------------|
|--0-0-0-0----------|-------------------||--2-2-2-2-0-0-0-0--|----------------1--||----------1-1-1-1--|--------------2----||-------------------|--------0-1-2------||-------------------|--0-2-3------------||--0----------------|-------------------|
|------------------|-3----1-0-------0--||-0-----------0-1--|----------3---4----||-----2-0-2--------|-------------------||------------------|-------------------||------------------|-------------------||------------------|-------------------|
|-------------------17--||-12----10----10--------||----------12-----------||-----------------------||-----------------------||-----------------------|
p|-----15---|----13---|-12---8---|-13--12----||-----17---|----15---|-13--10---|-15--13----||-----15---|----14---|-12---9---|-14--12----||----------|---------|----------|-----------||--0-0-0-0-|-0-0-0-0-|--0-0-0-0-|--0-0-0-0--||----------|---------|----------|-----------|
|-10--8--6----|-----5---|--3--------|--5---3----||-11-10--8----|-----6---|--5---5----|--6---5----||-10--9--7----|-----5---|--3---5----|--5---3----||-------------|---------|------5----|-----------||--0--0--0--0-|-0-0-0-0-|--0-0-0-0--|--0-0-0-0--||-------------|---------|-----------|-----------|
|-------------|---------|--3-------|--1--------||--6--5--3----|-----5---|--5-------|--3--------||--7--5--3----|-----5---|--3-------|--2--------||--7--5--3----|-----5---|----------|-----------||--0--0--0--0-|-0-0-0-0-|--0-0-0-0-|--0-0-0-0--||-------------|---------|----------|-----------|
>>>decrescendo>>>|--0-------|---------|---------|---------||--0-------|---------|---------|---------||--1-------|---------|---------|---------||--0-------|---------|---------|---------||--0-0-0-0-|-0-0-0-0-|-0-0-0-0-|-0-0-0-0-||----------|---------|---------|---------|
>>>decrescendo>>>|----------|---------|---------|||--3-------|---------|---------|||--3-------|---------|---------|||--3-------|---------|---------|||--0-0-0-0-|-0-0-0-0-|-0-0-0-0-|||----------|---------|---------|| Return to first
|-----------------|------------------||-----------------|------------------||-----------------|------------------||-----------------|------------------||-1-0-------------|------------------||-----3-1-0-1-0-1-|-0-1-0-1-0-1-0-1--|
|-------------------|-------------------||-------------------|-------------------||-------------------|------0-------0----||------2-------2----|----1-------1------||----3-------3---2--|--5-----3-1-----0--||--2-----3-5--------|-------------------|
<<>>> |-------------------|-------------------||-------------------|--------------0----||-------------------|-------------------||------4-------4----|----0-------6------||----5-------5------|------9---9-----7--||--4-----5-6-----7--|--9-----7----------|
<<>>decrescendo>>>|-------------------|-------------------||-------------------|------5-------5----||------6-------6----|----5-------5------||----7-------7---6--|--9-----7-5-----4--||--6-----7-9--------|-------------------||-------------------|-------------------|
<<< <<< <<< >>> |-------------------|--------------4----||------4-------4----|------4-----6------||----4-------4------|----4-----8-----6--||--3-----4-5-----6--|--8-----6----------||-------------------|-------------------||-------------------|-------------------|
<<< >>> <<< >>>|------6-------7----|------8---------9----||----7-------8------|----9--------10------||--5-----6-9-----8--|--7-----8-11------10-||-------------------|---------------------||-------------------|---------------------||-------------------|---------------------|
<<< >>> |------10----------11----|-------12-----------------||---11----------12-------|----13-------------12-10--||-9-------10-13-------12-|-11-------12-12-13--------||------------------------|--------------------------||------------------------|--------------------------||------------------------|--------------------------|
f |---8------------|--------------4--8--|--6----7----||---9----1-------|--0--1-----6--------|--6----5----||--10----1-------|--0--1--------------|--7----6----||--------3-------|--0--3--------------|--5---------||----------------|--------------------|-------6----||----------------|--------------------|------------|
f p |--8------------|-----------------8--|-------|-------||-------4-------|--------------4-----|-------|-------||-------5-------|-----------5--------|---*---|---*---||-------6-------|--------6-----------|-------|-------||--6------------|-----6--------------|-------|-------||--4------------|--4-----------------|-------|-------|
f |--8------------|--8------------|--8------------||-------5-------|-------6-------|-------5-------||-------5-------|-------5-------|-------5-------||-------6-------|--6----6-------|-------6-------||--7------------|---------------|--7------------||--4------------|--4------------|--4------------|
|-----------------8--|-------|-------|--8--------||--------------4-----|-------|-------|------5----||-----------5--------|---*---|---*---|------5----||--------6-----------|-------|-------|------6----||-----6--------------|-------|-------|--7--------||--4-----------------|-------|-------|--4--------|
|-----------------8--|-10-----------||--------------6-----|--7----4------||-----------5--------|--5----4------||--------6-----------|-------3------||-----8--------------|--0-----------||--4-----------------|--------------|
|--------------0--------|-----|-----|-----||-----------1-----1<13>-|-----|-----|-----||--------0--------------|--*--|--*--|--*--||-----2-----------------|-----|-----|-----||-----------------------|-----|-----|-----||--3--------------------|-----|-----|-----|
|-----10--------------|--------------0--8--|-----|-----||---------5-----------|--------------------|-----------||------------7--------|--------2--5--------|-----*-----||---------------7-----|-----2--------------|-----------||------------------7--|--------------------|-----|-----||---------------------|--2-----------------|-----|-----|
|---------|----------|-----|------------|------|||---------|----------|-----|------------|------|||---------|----------|-----|------------|------|||---------|----------|-----|------------|------|||---5-----|---9p7----|-----|--3s7-------|------|||---------|----------|-----|------------|------||back to intro
|--------------------|----0---0---0---0--||--3-3-3-3----5------|--3---1---3---1----||--3-3-3-3------2-5--|-------------------||--2-2-2-2-----------|-------------------||--------------------|-------------------||--0-0-0-0-----------|-------------------|
forte |----0--------------|------------------||--3-----1----------|------------------||------2---3--------|------------------||----------------3--|-2-------2--------||------------5-4----|---5-3-2---5-3-2--||-------------------|------------------|
|----------------1-|-0-------0--------||--------------0---|---3-1-0---3-1-0--||------------5-----|------------------||----2-0-2-3-------|------------------||--0---------------|------------------||------------------|------------------|
rit poco |-0----------------|---------0---------||---3-1-0----------|---0-1-3---7-8-10--||---------2-0---0--|-2-----------------||-------------4----|-------------------||------------------|-------------------||------------------|-------------------|
|--7-------8-10-----12-|----7----7-8-----10-||-------10--------8----|-10---10-------7----||----11---------9------|-------------7------||----------------------|--------------------||----------------------|--------------------||----------------------|--------------------|
|-----------7-----8-|----------5-----7--||-8------10---0-----|--7-8-7-8----------||------9--------7---|--------------5----||---10--------------|------------7------||-------------------|-------------------||-------------------|-------------------|
|--0-------------0-2-|-3-2-3-5-6-7-3-2--||------------0-4-----|------------------||----------0---------|------------------||--------0-----------|------------------||--------------------|------------------||-----3--------------|------------------|
<<<|--0----0---------6--|-9-6-7-8-11-9-10-11-||--2--4---7-9-8-9----|--------------------||--1-----------------|--------------------||--------------------|--------------------||--------------------|--------------------||--2-----------------|--------------------|
f >>>>>|--14---12-10---------0-|------------------||---0---------12-10-8---|--3-0-------------||---0-------------------|------2-0---------||---0-------------------|----------2-0-----||---0-------------------|--------------2-0-||-----------------------|------------------|
|-------------------|-------------------||-------------------|--------------0----||-------------------|-------------------||------4-------4----|----0-------5------||----5-------5------|------9---9-----7--||--4-----5-6-----7--|--9-----7----------|
|-------------------|--------------------||-------------------|------2--------7----||------6-------6----|----2--------7------||----7-------7------|--6-----4-11-----9--||--6-----7-8-----9--|--------------------||-------------------|--------------------|
|--------------------|-------|-------------------||------9--------9----|-------|-----9--------9----||----9--------9------|---*---|---9--------9------||--8-----9-12-----11-|-------|-8-----9-11-----10-||--------------------|-------|-------------------||--------------------|-------|-------------------|
<<< <<< f |------------------9----|------------9--------||-------9-------10------|------7-----8----12--||-----9------13------11-|-10---9-----8--------||--13-----11------------|------7-11-----------||-----------------------|----9-------8--------||-----------------------|--7------------------|
|--4---5-------2-5-|--6---7---14----12---||------------3-----|---------------------||----------2-------|--7-------13---------||------0-4---------|--6------------------||----0-------------|----------13---------||--2---------------|--0------------------|
|-9----10-------5---|------|-9-10-12-10-10-7-7-5--||-------0-----8---8-|------|-------------0--------||----0----7-9-------|--*---|-------------0--------||-------------------|------|----------------------||-------------------|------|----------------------||-------------------|------|----------------------|
>>>decrescendo>>> >>>|-5-3-3-0--0--------|---------------------|-------||------------4-4-3--|-2-----3--------1----|-------||-------------------|--------------1---3--|---*---||-------------------|---------0--3--------|-------||-------------------|-------1-------------|-------||-------------------|----2----------------|-------|
>>> >>> >>> >>>|-------------0----|-----------------12-10-|-------|||-----------1---3--|---0----------13-------|-------|||---------1--------|--------10-13----------|-------|||-----0-3----------|-----12----------------|-------|||---2--------------|-----------------------|-------|||-0----------------|-0---------------------|-------||return to first
|-------------0---0-|----0---0---0---0--||--3-3-3-3------1---|--3---1---3---1----||--3-3-3-3----------|-------------------||--2-2-2-2----------|-------------------||-------------------|-------------------||--0-0-0-0----------|-------------------|
<<< <<< <<< |-----------1-1-1----|-----------5-5-5----||--3-3-3----2-2-2----|--8-8-8----5-5-5----||--3-3-3----1-1-1----|--8-8-8----6-6-6----||--5-5-5----3-3-3----|--8-8-8----7-7-7----||--------------------|--6-6-6-------------||--------------------|--------------------|
f|--6-6-6-6----0---0-|------------------|---0---0-||--8-8-8-8----------|------------------|---------||--7-7-7-7------5---|-7-5-3-------3-5--|-7---5---||--5-5-5-5----------|-------7-5-7------|---------||-------------------|------------------|---------||-------------------|------------------|---------|
|------------------|---0---0---0---0--||------------------|------------------||-7-5-3-------3-5--|-7---5---7---5----||-------7-5-7------|------------------||------------------|------------------||------------------|------------------|
ff|---0---0---0------|------4-5-------||--0-0-0-0--||------------------|--5-7-----------||--0-0-2-2--||-7---5---7---5-7--|----------------||--1-1-1-1--||------------------|----------------||--2-2-2-2--||------------------|----------------||--2-2-2-2--||------------------|----------------||--0-0-0-0--|x7
fff |---0-----12------|---10-----8-----|--0-0-0------|||---0-----10------|---10-----8-----|--0-0-0------|||---1-----11------|----9-----8-----|--1-1-1------|||---2-----10------|----8-----7-----|--2-2-2------|||---2-------------|----------------|--2-2-2------|||---0-------------|----------------|--0-0-0------||
Tap to rate this tab
 
# A B C D E F G H I J K L M N O P Q R S T U V W X Y Z