Misc Unsigned Bands - The River Of Oblivion - Freedom tab

Title: FREEDOM!
Tempo = 120
Steel Guitar

Legend
L - tied note
x - dead note
h - hammer on/pull off
b - bend
s - slide
~ - vibrato
g - ghost note
> - accentuated note
t - trill
M - palm mute
. - staccato
P - popping (bass)
S - slapping (bass)
+ - tapping
W - wide vibrato
< - fade in
w - whammy bar
= - tremolo picking
v - brush up
^ - brush down
V - pick stroke up
n - pick stroke down


C#||----------------------------------------------------------------------------|G#||-15----15----15----15----15----------x-----x-----7-----------------7--------|E ||ox-----x-----x-----x-----x-----------x-----x-----x-----------------x--------|B ||o13----13----13----13----13----------x-----x-----5-----------------5--------|F#||-15----15----15----15----15----------x-----x-----7-----------------7--------|B ||----------------------------------------------------------------------------|
=-----------------------|---7--------7----------|---x-------------------|---5-------------------|---7-------------------|-----------------------|
= = = = = = = = =--------------7-----7-----8-----10----8-----7-----0-----------------------7-----|--8-----10----------------------------------------------x--------x--------8-----|--------------------------------------------------------x--------x--------------|--------------------------------------------------------x--------x--------------|--------------------------------------------------------x--------x--------------|--------------------------------------------------------------------------------|
------------7-------------------------------------------------------|------------8--------x--------x--------10----------------10---------|---------------------x--------x--------11----------------11---------|---------------------x--------x-------------------------------------|---------------------x--------x-------------------------------------|--------------------------------------------------------------------|
----------------------------------------------------|--x--x--8--------8--8-----x--x--5--5--5-----5-------|--x--x--x--------x--x-----x--x--x--x--x-----x-------|--x--x--9--------9--9-----x--x--5--5--5-----5-------|--x--x--7--------7--7-----x--x--3--3--3-----3-------|----------------------------------------------------|
----------------------------------------------------|----------------------------------------------------|--5-----------5-----5-----5--5--5-----5-----x-------|--5-----------5-----5-----5--5--5-----5-----x-------|--7-----------7-----7-----7--7--7-----7-----x-------|--7-----------7-----7-----7--7--7-----7-----x-------|
----------------------------------------------------|----------------------------------------------------|--4-----------4-----4-----4--4--4-----4-----x-------|--4-----------4-----4-----4--4--4-----4-----x-------|--5-----------5-----5-----5--5--5-----5-----x-------|--5-----------5-----5-----5--5--5-----5-----x-------|
----------------------------|---------------------------|||----------------------------|---------------------------|||--2--------2-----2M-2M-2M---|--2M-2--2--2--2--2--2--2--o|||--2--------2-----2M-2M-2M---|--2M-2--2--2--2--2--2--2--o|||--3--------3-----3M-3M-3M---|--3M-3--3--3--3--3--3--3---|||--3--------3-----3M-3M-3M---|--3M-3--3--3--3--3--3--3---|||
-------------------------15-------15-------15------|-8--8--8--8--8-----x--x--17-------17-------17------|ox--x--x--x--x-----x--x----------------------------|o7--7--7--7--7-----x--x----------------------------|-8--8--8--8--8-----x--x----------------------------|-8--8--8--8--8-------------------------------------|
--10h8h-7h-0--------------------5h-0----------------|--------------8h-0--0h-5h-7h-8--------3h-5h-3h-0----|----------------------------------------------------|----------------------------------------------------|----------------------------------------------------|----------------------------------------------------|
----------------------------------------------------|--3--3--3--3--3-----x--x--3--------3--------3L------|--x--x--x--x--x-----x--x--x--------x--------x-------|--2--2--2--2--2-----x--x--2--------2--------2L------|--3--3--3--3--3-----x--x--3--------3--------3L------|--3--3--3--3--3-----------3--------3--------3L------|
--------------------------------------------------------------------------------|--3-----------------3-----3-----3-----3-----------------x--------x--------3-----|--x-----------------x-----x-----x-----x-----------------x--------x--------x-----|--2-----------------2-----2-----2-----2-----------------x--------x--------2-----|--3-----------------3-----3-----3-----3-----------------x--------x--------3-----|--3-----------------3-----3-----3-----3-----------------------------------3-----|
-------------------------------------------------------------------|||---------------------3--------------------------3------------------|||---------------------x--------------------------x-----------------o|||---------------------2--------------------------2-----------------o|||---------------------3--------------------------3------------------|||---------------------3--------------------------3------------------|||
--------------------------------------------------------------------------------|-------------------7h-------0-----------------7h-------0-----------------7h-----|o-------------------------------------------------------------------------------|o-------------------------------------------------------------------------------|-7L----------------7L-------7--------7L-------7L-------7--------7L-------7L-----|--------------------------------------------------------------------------------|
-------------------------------------------------------------------|--0-----------------7h-------0--------5h----7h----5h----0----------|-------------------------------------------------------------------|-------------------------------------------------------------------|--7--------7L-------7L-------7-------------------------------------|-------------------------------------------------------------------|
--------------------------------------------------------------------------------|--------------------3h-------0-----------------3h-------0-----------------3h----|--------------------------------------------------------------------------------|--------------------------------------------------------------------------------|--3L----------------3L-------3--------3L-------3L-------3--------3L-------3L----|--------------------------------------------------------------------------------|
-------------------------------------------------------------------|||---0-----------------3h-------0--------3h----5h----3h----0---------|||------------------------------------------------------------------o|||------------------------------------------------------------------o|||---3--------3L-------3L-------3------------------------------------|||-------------------------------------------------------------------|||
--------------------------------------------------------------------------------|----------------------------5h-------0------------------------------------------|o-------------------------------------------------------------------------------|o7--------7--------7-----------------------------------7--------7--------7------|-7--------7--------7-----------------------------------7--------7--------7------|-7--------7--------7-----------------------------------7--------7--------7------|
-----------------------------5h-------0----------------------------|--5h----8h----5h----0----------------------------------------------|-------------------------------------------------------------------|-------------------------------------------------------------------|-------------------------------------------------------------------|-------------------------------------------------------------------|
--------------------------------------------------------------------------------|-----------------------------5h-------0-----------------------------------------|--------------------------------------------------------------------------------|--7--------7--------7-----------------------------------7--------7--------7-----|--7--------7--------7-----------------------------------7--------7--------7-----|--7--------7--------7-----------------------------------7--------7--------7-----|
------------------------------5h-------0----------------------------|---5h----8h----5h----0----------------------------------------------|--------------------------------------------------------------------|--------------------------------------------------------------------|--------------------------------------------------------------------|--------------------------------------------------------------------|
--------------------3-----3-----3-------|--------------x--x--5-----5-----5-------|--------------x--x----------------------|--3-----3-----x--x----------------------|--3-----3-----x--x----------------------|--3-----3-------------------------------|
--------------------10----10----10------|--------------x--x--12----12----12------|--------------x--x----------------------|--3-----3-----x--x----------------------|--3-----3-----x--x----------------------|--3-----3-------------------------------|
--------------------3-----3-----3-------|--------------x--x--5-----5-----5-------|--------------x--x----------------------|--3-----3-----x--x----------------------|--3-----3-----x--x----------------------|--3-----3-------------------------------|
--------------------10----10----10-----|||--------------x--x--12----12----12-----|||--------------x--x--------------------o|||--3-----3-----x--x--------------------o|||--3-----3-----x--x---------------------|||--3-----3------------------------------|||
---------------------------------------------------------------------------------|-15----15----15----15----15----------x-----x-----7-----------------7-----------7-|ox-----x-----x-----x-----x-----------x-----x-----x-----------------x-----------x-|o13----13----13----13----13----------x-----x-----5-----------------5-----------5-|-15----15----15----15----15----------x-----x-----7-----------------7-----------7-|---------------------------------------------------------------------------------|
=-------------------|--------7----------|-------------------|-------------------|-------------------|-------------------|
= = = = = = = = =--------------7-----7-----8-----10----8-----7-----0-----------------------7-----|--8-----10----------------------------------------------x--------x--------8-----|--------------------------------------------------------x--------x--------------|--------------------------------------------------------x--------x--------------|--------------------------------------------------------x--------x--------------|--------------------------------------------------------------------------------|
------------7-------------------------------------------------------|------------8--------x--------x--------10----------------10---------|---------------------x--------x--------11----------------11---------|---------------------x--------x-------------------------------------|---------------------x--------x-------------------------------------|--------------------------------------------------------------------|
----------------------------------------------------|--x--x--8--------8--8-----x--x--5--5--5-----5-------|--x--x--x--------x--x-----x--x--x--x--x-----x-------|--x--x--9--------9--9-----x--x--5--5--5-----5-------|--x--x--7--------7--7-----x--x--3--3--3-----3-------|----------------------------------------------------|
----------------------------------------------------|----------------------------------------------------|--5-----------5-----5-----5--5--5-----5-----x-------|--5-----------5-----5-----5--5--5-----5-----x-------|--7-----------7-----7-----7--7--7-----7-----x-------|--7-----------7-----7-----7--7--7-----7-----x-------|
----------------------------------------------------|----------------------------------------------------|--4-----------4-----4-----4--4--4-----4-----x-------|--4-----------4-----4-----4--4--4-----4-----x-------|--5-----------5-----5-----5--5--5-----5-----x-------|--5-----------5-----5-----5--5--5-----5-----x-------|
----------------------------|---------------------------|||----------------------------|---------------------------|||--2--------2-----2M-2M-2M---|--2M-2--2--2--2--2--2--2--o|||--2--------2-----2M-2M-2M---|--2M-2--2--2--2--2--2--2--o|||--3--------3-----3M-3M-3M---|--3M-3--3--3--3--3--3--3---|||--3--------3-----3M-3M-3M---|--3M-3--3--3--3--3--3--3---|||
-------------------------15-------15-------15------|-8--8--8--8--8-----x--x--17-------17-------17------|ox--x--x--x--x-----x--x----------------------------|o7--7--7--7--7-----x--x----------------------------|-8--8--8--8--8-----x--x----------------------------|-8--8--8--8--8-------------------------------------|
--10h8h-7h-0--------------------5h-0----------------|--------------8h-0--0h-5h-7h-8--------3h-5h-3h-0----|----------------------------------------------------|----------------------------------------------------|----------------------------------------------------|----------------------------------------------------|
----------------------------------------------------|--3--3--3--3--3-----x--x--3--------3--------3L------|--x--x--x--x--x-----x--x--x--------x--------x-------|--2--2--2--2--2-----x--x--2--------2--------2L------|--3--3--3--3--3-----x--x--3--------3--------3L------|--3--3--3--3--3-----------3--------3--------3L------|
--------------------------------------------------------------------------------|--3-----------------3-----3-----3-----3-----------------x--------x--------3-----|--x-----------------x-----x-----x-----x-----------------x--------x--------x-----|--2-----------------2-----2-----2-----2-----------------x--------x--------2-----|--3-----------------3-----3-----3-----3-----------------x--------x--------3-----|--3-----------------3-----3-----3-----3-----------------------------------3-----|
-------------------------------------------------------------------|||---------------------3--------------------------3------------------|||---------------------x--------------------------x-----------------o|||---------------------2--------------------------2-----------------o|||---------------------3--------------------------3------------------|||---------------------3--------------------------3------------------|||
--------------------------------------------------------------------------------|-------------------7h-------0-----------------7h-------0-----------------7h-----|o-------------------------------------------------------------------------------|o-------------------------------------------------------------------------------|-7L----------------7L-------7--------7L-------7L-------7--------7L-------7L-----|--------------------------------------------------------------------------------|
-------------------------------------------------------------------|--0-----------------7h-------0--------5h----7h----5h----0----------|-------------------------------------------------------------------|-------------------------------------------------------------------|--7--------7L-------7L-------7-------------------------------------|-------------------------------------------------------------------|
--------------------------------------------------------------------------------|--------------------3h-------0-----------------3h-------0-----------------3h----|--------------------------------------------------------------------------------|--------------------------------------------------------------------------------|--3L----------------3L-------3--------3L-------3L-------3--------3L-------3L----|--------------------------------------------------------------------------------|
-------------------------------------------------------------------|||---0-----------------3h-------0--------3h----5h----3h----0---------|||------------------------------------------------------------------o|||------------------------------------------------------------------o|||---3--------3L-------3L-------3------------------------------------|||-------------------------------------------------------------------|||
--------------------------------------------------------------------------------|----------------------------5h-------0------------------------------------------|o-------------------------------------------------------------------------------|o7--------7--------7-----------------------------------7--------7--------7------|-7--------7--------7-----------------------------------7--------7--------7------|-7--------7--------7-----------------------------------7--------7--------7------|
-----------------------------5h-------0----------------------------|--5h----8h----5h----0----------------------------------------------|-------------------------------------------------------------------|-------------------------------------------------------------------|-------------------------------------------------------------------|-------------------------------------------------------------------|
--------------------------------------------------------------------------------|-----------------------------5h-------0-----------------------------------------|--------------------------------------------------------------------------------|--7--------7--------7-----------------------------------7--------7--------7-----|--7--------7--------7-----------------------------------7--------7--------7-----|--7--------7--------7-----------------------------------7--------7--------7-----|
------------------------------5h-------0----------------------------|---5h----8h----5h----0----------------------------------------------|--------------------------------------------------------------------|--------------------------------------------------------------------|--------------------------------------------------------------------|--------------------------------------------------------------------|
--------------------3-----3-----3-------|--------------x--x--5-----5-----5-------|--------------x--x----------------------|--3-----3-----x--x----------------------|--3-----3-----x--x----------------------|--3-----3-------------------------------|
--------------------10----10----10------|--------------x--x--12----12----12------|--------------x--x----------------------|--3-----3-----x--x----------------------|--3-----3-----x--x----------------------|--3-----3-------------------------------|
--------------------3-----3-----3-------|--------------x--x--5-----5-----5-------|--------------x--x----------------------|--3-----3-----x--x----------------------|--3-----3-----x--x----------------------|--3-----3-------------------------------|
--------------------10----10----10-----|||--------------x--x--12----12----12-----|||--------------x--x--------------------o|||--3-----3-----x--x--------------------o|||--3-----3-----x--x---------------------|||--3-----3------------------------------|||
--------------------------------------------------|||----8-----8-----7-----7--15-15-15-15-14-14-14-14--|||o------------------------x--x--x--x--x--x--x--x--o|||o------------------------x--x--x--x--x--x--x--x--o|||-7-----7-----5-----5-----14-14-14-14-12-12-12-12--|||--------------------------------------------------|||
= = = =--------------------------------------------------|||--------------||-8--8--8--8--7--7--7--7--15-15-15-15-14-14-14-14--|||-8--7--15-14--||ox--x--x--x--x--x--x--x--x--x--x--x--x--x--x--x--o|||ox--x--x--x--o||ox--x--x--x--x--x--x--x--x--x--x--x--x--x--x--x--o|||ox--x--x--x--o||-7--7--7--7--5--5--5--5--14-14-14-14-12-12-12-12--|||-7--5--14-12--||--------------------------------------------------|||--------------||
----------------||-------------0L-0L-0L-0L----0L-0L-0--0L-0L-0L-0---|||--8--7--15------||-------------0L-0L-0L-0L----0L-0L-0--0L-0L-0L-0---|||--x--x--x-------||o------------0L-0L-0L-0L----0L-0L-0--0L-0L-0L-0--o|||--x--x--x-------||o7--7--7--7-----7--7--3-----3--3--3-----3--3--3--o|||--7--5--14------||-7--7--7--7-----7--7--3-----3--3--3-----3--3--3---|||----------------||-7--7--7--7-----7--7--3-----3--3--3-----3--3--3---|||
-------------0L-0L-0L-0L----0L-0L-0--0L-0L-0L-0---|||-------------0L-0L-0L-0L----0L-0L-0--0L-0L-0L-0---|||o------------0L-0L-0L-0L----0L-0L-0--0L-0L-0L-0--o|||o7M-7M-7M-7M----7M-7M-3M----3M-3M-3M----3M-3M-3M-o|||-7M-7M-7M-7M----7M-7M-3M----3M-3M-3M----3M-3M-3M--|||-7M-7M-7M-7M----7M-7M-3M----3M-3M-3M----3M-3M-3M--|||
-------------0L-0L-0L-0L----0L-0L-0--0L-0L-0L-0---||-------------0L-0L-0L-0L----0L-0L-0--0L-0L-0L-0---||o------------0L-0L-0L-0L----0L-0L-0--0L-0L-0L-0--o||o7--7--7--7-----7--7--3-----3--3--3-----3--3--3--o||-7--7--7--7-----7--7--3-----3--3--3-----3--3--3---||-7--7--7--7-----7--7--3-----3--3--3-----3--3--3---||
--------------0L-0L-0--0L-0L------------------------|--0L---|--0----||--------------0L-0L-0--0L-0L------------------------|--0L---|--0----||--------------0L-0L-0--0L-0L------------------------|--0L---|--0----||--7--7--7--7-----7--7--3L-3L------------------------|--3L---|--3----||--7--7--7--7-----7--7--3L-3L------------------------|--3L---|--3----||--7--7--7--7-----7--7--3L-3L------------------------|--3L---|--3----||
Tap to rate this tab
 
# A B C D E F G H I J K L M N O P Q R S T U V W X Y Z