Misc Unsigned Bands – Crooked Spine - Nevermore tab

Band: Crooked Spine
We are a Long Island local band, but we arent an official band yet, here is our first song it's called "Never More"


  E----------------------}
  B----------------------}
  G------------0---------}
  D---------4-----4------}   
  A------2-----------2---}  
  E---0------------------}


  E----------------------}
  B----------------------}
  G------------0---------}   
  D---------4-----4------}   
  A------2-----------2---}
  E---3------------------}



Kinda Easy, but hey, we Try
Please rate this tab:
x1.0