Misc Unsigned Bands - Dave Price - The Knack tab

Title: The Knack
Artist: Dave Price
Album: Demo
Music: Dave Price
Tabber: Dave Price
Tempo = 135
Guitar

Legend
L - tied note
x - dead note
h - hammer on/pull off
b - bend
s - slide
~ - vibrato
g - ghost note
> - accentuated note
t - trill
M - palm mute
. - staccato
P - popping (bass)
S - slapping (bass)
+ - tapping
W - wide vibrato
< - fade in
w - whammy bar
= - tremolo picking
v - brush up
^ - brush down
V - pick stroke up
n - pick stroke down


E |----------------------------------------------------|B |----------------------------------------------------|G |--------2h-0-----2----------------------------------|D |--------2h-0-----2-----------------0-----------0----|A |--0-----------0-----0-----------0-----------0-------|E |--------------------------3-----------2-------------|
----------------------------------------------------|----------------------------------------------------|--------2h-0-----2-----------------0----------------|--------2h-0-----2--------------0-------------------|--0-----------0-----0-----3s-4----------------------|--------------------------------------3-------------|
----------------------------------------------------|----------------------------------------------------|--------2h-0-----2----------------------------------|--------2h-0-----2-----------------0-----------0----|--0-----------0-----0-----------0-----------0-------|--------------------------3-----------2-------------|
----------------------------------------------------|----------------------------------------------------|--------2h-0-----5--------2-------------------------|--------2h-0-----4b-------2-------------------------|--0-----------0-----------0-------------------------|----------------------------------------------------|
--5--------------------5L-5-------------------------|--5-----7-----5--------5L-5-----7-----5-------------|--------7-----5h-6--------------7-----5h-6--0-------|-----7-----7--------7--------7-----7----------------|----------------------------------------------------|----------------------------------------------------|
--5-------------------------------------------------|--3h-4h-3-----3--------------------------4----------|-----------5-----5h-2-----5-----2--4s-5-----5s-6----|-----------------------4-----4----------------------|----------------------------------------------------|----------------------------------------------------|
--5--------------------5L-5----------------------------|--5-----7-----5--------5L-5-----7-----5----------------|--------7-----5h-6--------------7-----5h-6--7s---------|-----7-----7--------7--------7-----7-------------------|-------------------------------------------------------|-------------------------------------------------------|
-----5-----------------------------------------0----||-----5--------------7-----4--5-----------0----------||--8-----8--7h-5-----7-----5s-6-----0--------6-------||-----------------7-----7--------7-----7-------------||----------------------------------------------------||----------------------------------------------------||
----------------------7----------------------------|-------7-----10h7--------10h7-----10h7-------------|o7h-9-----9--------9-----------9--------9h-7-------|o---------------------------------------------9----|---------------------------------------------------|---------------------------------------------------|
----------------------------------------------------|----------------------------------------------------|--9-----7-------------------------------------------|-----9-----9h-7-----9-----7-----------9-------------|-----------------9-----9-----9h-7-------------------|-----------------------------------10---------------|
----------------------------------------------------|----------------------------------------------------|----------------------------------------------------|--------7-----7h-0-----5h-0-----4.----2h-0-----2----|--7h-9-----9--------7--------5--------------3-------|----------------------------------------------------|
----------------------------------------------------|----------------------------------------------------|----------------------------------------------------|--0--2h-0-----0--------0--------------0-------------|-----------3-----2s-3--------0----------------------|--------------------------3-----1s-2----------------|
-----------------------7----------------------------|--------7-----10h7--------10h7-----10h7-------------|--7h-9-----9--------9-----------9--------9h-7-------|-----------------------------------------------9----|----------------------------------------------------|----------------------------------------------------|
----------------------------------------------------|----------------------------------------------------|--9-----7-------------------------------------------|-----9-----9h-7-----9-----7-----------9-------------|-----------------9-----9-----9h-7-------------------|-----------------------------------10---------------|
--------------------7-----10h7----------------------|--------------8--------8-----------10h7-------------|--------9--------9--------------9--------9h-7-------|--9s-10----10----------------------------------9s---|----------------------------------------------------|----------------------------------------------------|
---------------------------------------------------||--------------8-----10-------8---------------------||--------9--------9-----10s11----10-9h-7-----------o||--10s------10-------------------------------------o||---------------------------------------------------||---------------------------------------------------||
-----------------------7-----------9h-7-------------|--------7-----10h7--------10h7-----------10h7-------|--7h-9-----9--------9-----------9--------------9----|----------------------------------------------------|----------------------------------------------------|----------------------------------------------------|
--12h10----12h10----------------10------------------|--------13-------13h10----10h12----12h10----10h13---|-----------------------12----------------12---------|----------------------------------------------------|----------------------------------------------------|----------------------------------------------------|
--12h------10----------------15h------10----------------12h------10-------15h-----------------------13-------------------------13---------------------------------------------------------------------------------------------------------------------------------------------------------------------------------------------------------------------------------------------------------------------------------------------------------------------------------------------------------------
12h---10------------------------------------------------------------|------------12h---11h---10----------------------8h-------11---------|------------------------------12------------------------------------|--------------------------------------------------------------------|--------------------------------------------------------------------|--------------------------------------------------------------------|
--10h8-----10h8-----------------8-------------------|--------11-------11h8-----8h-10----10h8-----8h-10---|-----------------------10----------------10---------|----------------------------------------------------|----------------------------------------------------|----------------------------------------------------|
--10h8-----10h8-----------------------------5L------|--------11-------11h8-----11h8--------------5L------|-----------------------10-------10h8--7-------------|----------------------------------------------------|----------------------------------------------------|----------------------------------------------------|
--5--------------------5L-5----------------------------|--5-----7-----5--------5L-5-----7-----5----------------|--------7-----5h-6--------------7-----5h-6-----0-------|-----7-----7--------7--------7-----7-------------------|-------------------------------------------------------|-------------------------------------------------------|
--5--------------------------------------------5L---|--3h-4h-3-----3--------------3--------4--------5L---|-----------5-----5h-2-------------------------------|-----------------------4s-5-----5s-6-----6s-7-------|----------------------------------------------------|----------------------------------------------------|
--5--------------------5L-5-------------------------------|--5-----7-----5--------5L-5-----7-----5-------------------|--------7-----5h-6--------------7-----5h-6--7s------------|-----7-----7--------7--------7-----7----------------------|----------------------------------------------------------|----------------------------------------------------------|
-----5----------------------------------------------|-----5--------------------6-----------5-------------|--8-----8--7h-5-----0-----5-----------5-------------|-----------------7-----3----------------------------|----------------------------------------------------|----------------------------------------------------|
-----------------------7----------------------------|--------7-----10h7--------10h7-----10h7-------------|--7h-9-----9--------9-----------9--------9h-7-------|-----------------------------------------------9----|----------------------------------------------------|----------------------------------------------------|
----------------------------------------------------|----------------------------------------------------|--9-----7-------------------------------------------|-----9-----9h-7-----9-----7-----------9-------------|-----------------9-----9-----9h-7-------------------|-----------------------------------10---------------|
----------------------------------------------------|----------------------------------------------------|----------------------------------------------------|--------7-----7h-0-----5h-0-----4.----2h-0-----2----|--7h-9-----9--------7--------5--------------3-------|----------------------------------------------------|
----------------------------------------------------|----------------------------------------------------|----------------------------------------------------|--0--2h-0-----0--------0--------------0-------------|-----------3-----2s-3--------0----------------------|--------------------------3-----1s-2----------------|
-----------------------7----------------------------|--------7-----10h7--------10h7-----10h7-------------|--7h-9-----9--------9-----------9--------9h-7-------|-----------------------------------------------9----|----------------------------------------------------|----------------------------------------------------|
----------------------------------------------------|----------------------------------------------------|--9-----7-------------------------------------------|-----9-----9h-7-----9-----7-----------9-------------|-----------------9-----9-----9h-7-------------------|-----------------------------------10---------------|
--------------------7-----10h7----------------------|--------------8--------8-----------10h7-------------|--------9--------9--------------9--------9h-7-------|--9s-10----10----------------------------------9s---|----------------------------------------------------|----------------------------------------------------|
----------------------------------------------------|--------------8-----10-------8----------------------|--------9--------9-----10s11----10-9h-7-------------|--10-------10----------------------------------9s---|----------------------------------------------------|----------------------------------------------------|
--------------------------------12h15-19h15----19s--|--------------8-----10-------13-------------17------|--------9--------9-----10s14------------------------|--10-------10---------------------------------------|----------------------------------------------------|----------------------------------------------------|
--15s12----15s12h8-----12s8h-5-------------------------|--------13----------10----------7h-5-------------------|--------------------------------------7----------------|-------------------------------------------------------|-------------------------------------------------------|-------------------------------------------------------|
--5--------------------5L-5-------------------------|--5-----7-----5--------5L-5-----7-----5-------------|--------7-----5h-6--------------7-----5h-6--0-------|-----7-----7--------7--------7-----7----------------|----------------------------------------------------|----------------------------------------------------|
--5-------------------------------------------------------|--3h-4h-3-----3--------------------------4----------------|-----------5-----5h-2-----5-----2--4s-5-----5s-6----------|-----------------------4-----4----------------------------|----------------------------------------------------------|----------------------------------------------------------|
--5--------------------5L-5-------------------------|--5-----7-----5--------5L-5-----7-----5-------------|--------7-----5h-6--------------7-----5h-6-----7s---|-----7-----7--------7--------7-----7----------------|----------------------------------------------------|----------------------------------------------------|
-----5----------------------------------------------|-----5--------------7-----4--5----------------------|--8-----8--7h-5-----7-----5s-6-----0----------------|-----------------7-----7--------7-----2s-4--0-------|----------------------------------------------------|----------------------------------------------------|
--5--------------------5L-5-------------------------|--5-----7-----5--------5L-5-----7-----5-------------|--------7-----5h-6--------------7-----5h-6-----0----|-----7-----7--------7--------7-----7----------------|----------------------------------------------------|----------------------------------------------------|
--5--------------------------------------------5L---|--3h-4h-3-----3--------------3--------4--------5L---|-----------5-----5h-2-------------------------------|-----------------------4s-5-----5s-6-----6s-7-------|----------------------------------------------------|----------------------------------------------------|
--5--------------------5L-5-------------------------|--5-----7-----5--------5L-5-----7-----5-------------|--------7-----5h-6--------------7-----5h-6----------|-----7-----7--------7--------7-----7----------------|----------------------------------------------------|----------------------------------------------------|
--12h9-----0----------------------------------------|-------|--------10----8-----0-------------------------------|-------|-----------------9-----6-----0----------------------|-------|--------------------------7-----------0-------------|-------|--------------------------------9h-7-----------0----|-------|-----------------------------------------1s-2-------|-------|
------------------------------------------------------------------------------------------------------------------------------------------------------------------------------------6h-------0-----------------4h-------0-----------------2h------7s----------------------------------5--------------------------4------------------------------------------------------------------------------------------------------------------------------------------------------------------------------
--------------------------------------------------------------------|--------------------------------------------------------------------|---0-----------------0----------------------------------------------|------------4-----------------4h----2h----0--------------0----------|------------------------------------------------4-------------------|--------------------------------------------------------------------|
------------------------------------------------------------------------------------------------------------------------------------------------------------------------------------6h-------0-----------------4h-------0-----------------2h------7-----------------------------------5--------------------------4------------------------------------------------------------------------------------------------------------------------------------------------------------------------------
--------------------------------------------------------------------|------------------------------3-------------------------------------|---0----------------------------------------------------------------|------------4-----2-----0-------------------------------------------|--------------------------------------------------------------------|--------------------------------------------------------------------|
------------------------------------------------------------------------------------------------------------------------------------------------------------------------------------6h-------0-----------------4h-------0-----------------2h------7s----------------------------------5--------------------------4------------------------------------------------------------------------------------------------------------------------------------------------------------------------------
--------------------------------------------------------------------|--------------------------------------------------------------------|---0-----------------0----------------------------------------------|------------4-----------------4h----2h----0--------------0----------|------------------------------------------------4-------------------|--------------------------------------------------------------------|
-----------------------------------------------0----|--------------------------------------------0-------|--------6h-0-----4h-0-----2h-0-----0--3s-4----------|--7-----------5--------4--------4-------------------|----------------------------------------------------|----------------------------------------------------|
-----------------------7----------------------------|--------7-----10h7--------10h7-----10h7-------------|--7h-9-----9--------9-----------9--------9h-7-------|-----------------------------------------------9----|----------------------------------------------------|----------------------------------------------------|
----------------------------------------------------|----------------------------------------------------|--9-----7-------------------------------------------|-----9-----9h-7-----9-----7-----------9-------------|-----------------9-----9-----9h-7-------------------|-----------------------------------10---------------|
----------------------------------------------------|----------------------------------------------------|----------------------------------------------------|--------7-----7h-0-----5h-0-----4.----2h-0-----2----|--7h-9-----9--------7--------5--------------3-------|----------------------------------------------------|
----------------------------------------------------|----------------------------------------------------|----------------------------------------------------|--0--2h-0-----0--------0--------------0-------------|-----------3-----2s-3--------0----------------------|--------------------------3-----1s-2----------------|
-----------------------7-----------9h-7-------------|--------7-----10h7--------10h7-----------10h7-------|--7h-9-----9--------9-----------9--------------9----|----------------------------------------------------|----------------------------------------------------|----------------------------------------------------|
--12h10----12h10----------------10------------------|--------13-------13h10----10h12----12h10----10h13---|-----------------------12----------------12---------|----------------------------------------------------|----------------------------------------------------|----------------------------------------------------|
--12h------10----------------15h------10----------------12h------10-------15h-----------------------13-------------------------13---------------------------------------------------------------------------------------------------------------------------------------------------------------------------------------------------------------------------------------------------------------------------------------------------------------------------------------------------------------
12h---10------------------------------------------------------------|------------12h---11h---10----------------------8h-------11---------|------------------------------12------------------------------------|--------------------------------------------------------------------|--------------------------------------------------------------------|--------------------------------------------------------------------|
--10h8-----10h8-----------------8-------------------|--------11-------11h8-----8h-10----10h8-----8h-10---|-----------------------10----------------10---------|----------------------------------------------------|----------------------------------------------------|----------------------------------------------------|
--10h8-----10h8-------------------------------------|--------11-------11h8-----11h8----------------------|-----------------------10-------10h8--7-------------|----------------------------------------------------|----------------------------------------------------|----------------------------------------------------|
-----------------------7----------------------------|--------7-----10h7--------10h7-----10h7-------------|--7h-9-----9--------9-----------9--------9h-7-------|-----------------------------------------------9----|----------------------------------------------------|----------------------------------------------------|
----------------------------------------------------|----------------------------------------------------|--9-----7-------------------------------------------|-----9-----9h-7-----9-----7-------------------------|-----------------9-----9-----9--8--7----------------|--------------------------------------10.-----------|
--10h7-----10h7-------------------------------------|--------9--------9h-6-----9h-6-----9h-6-------------|-----------------------7--------7--------7h-4-------|-----------------------------------------------6----|----------------------------------------------------|----------------------------------------------------|
--------------------------------------10------------||-----------------0--------------------10------------||-----6h-0-----------5s-6--7-----------9-------------||--7--------7s-8-----------------------10------------||----------------------------------------------------||----------------------------------------------------||
Tap to rate this tab
 
# A B C D E F G H I J K L M N O P Q R S T U V W X Y Z