Misc Unsigned Bands – Summer Soundtrack - Diagnose This tab

Artist: Summer Soundtrack
Song: Diagnose This!
Album: Diagnose This! (Single)


Intro:e|----------------------------------------------------------------|B|----------------------------------------------------------------|G|-----------------------------------------------7-5---5----------|D|--------------2-----------------------------2------7---7-6-5----| x4A|--2-4-4-4-4-2----2-4-4-4-4-2----2-4-4-4-4-2------------------0--|E|-----------------------------2----------------------------------|
|----------------------------------------------------||----------------------------------------------------||--7--5-7--7-7--5-7--0--7--5-7--7--5b-5b-5b-5b-5b-5b-| |--7--5-7--7-7--5-7--0--7--5-7--7--------------------| x2|--5--3-5--5-5--3-5--0--5--3-5--5--------------------||----------------------------------------------------|
|------||------||---7--||---7--| x17|---5--||------|
First Verse:"Somebody call a doctor..."|--------------------------------------------------------------||----6-6-x-x-6--6-6-x-x-6-------------x-x------------x-x-------||----7-7-x-x-7--7-7-x-x-7-------9--9--x-x-9----9--9--x-x-9-----||----7-7-x-x-7--7-7-x-x-7-------10-10-x-x-10---10-10-x-x-10----||--5-5-5-x-x-5--5-5-x-x-5-----8-8--8--x-x-8----8--8--x-x-8-----||--------------------------------------------------------------|
|--------------------------------------------------------------||-----10-10-10-10-10-10~~~-------------------------------------||-----10-10-10-10-10-10~~~----3-3-x-x-3--5-5-5-5-6-------------| |-----9--9--9--9--9--9~~------3-3-x-x-3--5-5-5-5-6-------------| x2|--10-10-10-10-10-10-10~~---1-1-1-x-x-1--3-3-0-3-4-------------||--------------------------------------------------------------|
Prechorus: (No guitar)
Chorus:"Woah, I'm getting closer now..."|--------------------------------------------------------------||-----------------------------------------6-----5----6~~-------||--7-7-10-7-7-9-7-7-10-7-7-9-7-7-10-----5-----5----5-----------||--7-7-7--7-7-7-7-7-7--7-7-7-7-7-7----3-----3----3-------------||--------------------------------------------------------------||--------------------------------------------------------------|
|----------------------||-----------------------------------------||---------------3/12---||-----------------------------------------||--5-5-7-5------x/x----||------------9-9-10-10----------9-9-10-10-||--5-5-7-5------x/x----||------10-10--------------10-10-----------||--3-3-5-3------2/10---||--8-8----------------8-8-----------------||----------------------||-----------------------------------------|
|-------------------------------||-------------------------------||------------------------/12~~--||-------9-------10--------------||-10-10---10-10----10-10--------||-------------------------------|
|----------------------------------------------------------------||----------------------------------------------------------------||-----------------------------------------------7-5---5----------||--------------2-----------------------------2------7---7-6-5----| |--2-4-4-4-4-2----2-4-4-4-4-2----2-4-4-4-4-2------------------0--||-----------------------------2----------------------------------|
|----------------------------------------------------------------||----------------------------------------------------------------||----------------------------------------------------5555--7\----||--------------2-----------------------------2--3333-5555--7\----| |--2-4-4-4-4-2----2-4-4-4-4-2----2-4-4-4-4-2----3333-3333--5\----||-----------------------------2-----------------1111-------------|
Verse 2 Chorus: Bridge:
|-----------------------------------------------------------||-----------------------------------------------------------||--7--7--7--7-0-5-0--7-7-7--7--7-0-5-0--7--7--7--7-0-5-0----||--7--7--7--7-0-5-0--7-7-7--7--7-0-5-0--7--7--7--7-0-5-0----||--5--5--5--5-0-3-0--5-5-5--5--5-0-3-0--5--5--5--5-0-3-0----||-----------------------------------------------------------|
|----------------------------------------------------||----------------------------------------------------||-----------9-9-10-10-------------------------/12~~--||-----10-10------------------9-------10--------------||-8-8------------------10-10---10-10----10-10--------||----------------------------------------------------|
Last Chorus:
|-------------------------------------||-------------------------------------||--7------------------------------/-\-||--7-(x16)---10-(x16)-10-(x14)----/-\-||--5---------8--------7-----------/-\-||-------------------------------------|p.m..............................
|--------------------------------||--------------------------------||--7-------10-------9--7--5-/-14-||--x-\-2---x--\-2---x--x--x-/-x--||--5-\-2---8--\-2---7--5--3-/-12-||--------------------------------|
Chorus:
Intro riff:e|----------------------------------------------------------------|B|----------------------------------------------------------------|G|-----------------------------------------------7-5---5----------|D|--------------2-----------------------------2------7---7-6-5----| x2A|--2-4-4-4-4-2----2-4-4-4-4-2----2-4-4-4-4-2------------------0--|E|-----------------------------2----------------------------------|
Please rate this tab:
x1.0