Misc Unsigned Bands - Philippe Sarde - La Grande Bouffe tab

Capo 3rd fret
h=hammer
p=pull-off
/=slide

|-------0-0h3-1-----------------0-0h3-1---------------------||---0-1---------3-0---------0-1---------3-0---0-------------||-------------------1-----------------------1---------------||---------------------2-------------------------------------||-0-----------2-----------0-----------2-------2-------------||---------------------0-------------------------------------|
|-----1-4/8-5--------------1-4/8-5-------5------------------||---3---------5----------3---------5---5---5---5------------||---------------5---5----------------5-------5--------------||-0---------------7----0------------------------------------||-----------0--------------------0--------------------------||-----------------------------------------------------------|
|-------0-0h3-1-----------------0-0h3-1---------------------||---0-1---------3-0---------0-1---------3-0---0-------------||-------------------1-----------------------1---------------||---------------------2-------------------------------------||-0-----------2-----------0-----------2-------2-------------||---------------------0-------------------------------------|
|-----1-4/8-5-----------------------------------------------||---3---------5-----------0-3-1-0---------------------------||---------------5---5-------------2-------------------------||-0---------------7-----0-----------------------------------||-----------0---------------------0-------------------------||-----------------------------------------------------------|
|-----------------------------------------------------------||---3-5p3---------------------3-5p3-------------------------||---------5-4---5-7p5---------------5-4---5-7p5-------------||-0-------------------7-----0-------------------7-----------||-------------0---------7---------------0---------7---------||-----------------------------------------------------------|
|---5-7p5-------5-7p5-----------1-4/8-5---------------------||---------6-----------5-------3---------5---------0-3-1-0---||-----------7-----------5-----------------5---5-----------2-||-0-------------------------0---------------7---0-----------||-------------0-----------------------0-------------------0-||-----------------------------------------------------------|
|-------0-0h3-1-----------------0-0h3-1---------------------||---0-1---------3-0---------0-1---------3-0---0-------------||-------------------1-----------------------1---------------||---------------------2-------------------------------------||-0-----------2-----------0-----------2-------2-------------||---------------------0-------------------------------------|
|-----1-4/8-5--------------1-4/8-5-------5------------------||---3---------5----------3---------5---5---5---5------------||---------------5---5----------------5-------5--------------||-0---------------7----0------------------------------------||-----------0--------------------0--------------------------||-----------------------------------------------------------|
|-----------------------------------------------------------||---3-5p3---------------------3-5p3-------------------------||---------5-4---5-7p5---------------5-4---5-7p5-------------||-0-------------------7-----0-------------------7-----------||-------------0---------7---------------0---------7---------||-----------------------------------------------------------|
|---5-7p5-------5-7p5-----------1-4/8-5---------------------||---------6-----------5-------3---------5---------0-3-1-0---||-----------7-----------5-----------------5---5-----------2-||-0-------------------------0---------------7---0-----------||-------------0-----------------------0-------------------0-||-----------------------------------------------------------|
|-------0-0h3-1-----------------0-0h3-1---------------------||---0-1---------3-0---------0-1---------3-0---0-------------||-------------------1-----------------------1---------------||---------------------2-------------------------------------||-0-----------2-----------0-----------2-------2-------------||---------------------0-------------------------------------|
|-----1-4/8-5-----------------------------------------------||---3---------5-----------0-3-1-0---------------------------||---------------5---5-------------2-------------------------||-0---------------7-----0-----------------------------------||-----------0---------------------0-------------------------||-----------------------------------------------------------|
|-----------------------------------------------------------||---3-5p3---------------------3-5p3-------------------------||---------5-4---5-7p5---------------5-4---5-7p5-------------||-0-------------------7-----0-------------------7-----------||-------------0---------7---------------0---------7---------||-----------------------------------------------------------|
|---5-7p5-------5-7p5-----------1-4/8-5-------------------0-||---------6-----------5-------3---------5---------3-7-6-3-3-||-----------7-----------5-----------------5---5-----------2-||-0-------------------------0---------------7---0---------1-||-------------0-----------------------0-------------------0-||-----------------------------------------------------------|
Tap to rate this tab
 
# A B C D E F G H I J K L M N O P Q R S T U V W X Y Z