Misc Unsigned Bands – Nikolaj Boesen - Songbird tab

Capo 7th fret

-------------------|-------------------|-----------0-------|------4------4---4-|----2---2------2---|--3----------------|
-------------------|-------------------|-----------0-------|------4------4---4-|----2---2------2---|--3----------------|
------------------|------------------|---4-----2--------|-----4-----4------|-------2-----2----|-3----------------|
------------------|------------------|--0-----0-----0---|----4-----4----4--|------2-----2---2-|------------------|
------------------|------------------|-4-----4-----4----|---3-----3-----3--|-----2-----2------|------------------|
------------------|-1-----1-----1----|---2-----2-----2--|-----2-----2------|------------------|------------------|
-2-----2-----2------|---3-----3-----3----|-----4-----4--------|--------------------|--------------------|--------------------|
-4---4--2-----2---|---3------3-----3-|------------4-----|------------------|------------------|------------------|
-2-----2-----2------|---3-----3-----3----|-----4-----4--------|--------------------|--------------------|--------------------|
-4---4--2-----2---|---3------3-----3-|------------4-----|------------------|------------------|------------------|
Please rate this tab:
x1.0