Misc Unsigned Bands - All Faces Down - Stop To Fall tab

ALL FACES DOWN - Stop To Fall

tuning C#
C#
G#
C#
F#
A#
D#


intro

----------------------------------------------------------------|----------------------------------------------------------------|-----------------------5--5-------------------------------------|5--3--5--3--5-5--1--1--5--5----5--3--5--3--5-5--1---------------|5--3--5--3--5-5--1--1--3--3----5--3--5--3--5-5------------------|5--3--5--3--5-5--1--1----------5--3--5--3--5-3--1---------------|
----------------------------------------------------------------|----------------------------------------------------------------|----------------------------------------------------------------|----------------10-10-10-10--------------------10--10--10--10---|5--3--5--3--5-5--8--8--8--8----5--3--5--3--5-5--8--8---10--10---|5--3--5--3--5-5--6--6--6--6----5--3--5--3--5-5--6--6---8---8----|5--3--5--3--5-5----------------5--3--5--3--5-5------------------|
verse
----------------------------------------------------------------|----------------------------------------------------------------|----------------------------------------------------------------|5--3--5--3--5-5-----------------5--3--5--3--5-5-----------------|5--3--5--3--5-5-----------------5--3--5--3--5-5-----------------|5--3--5--3--5-5-----------------5--3--5--3--5-5-----------------|
----------------------------------------------------------------|----------------------------------------------------------------|-------------------------------------------------------5--5-----|5--3--5--3--5-5-----------------5--3--5--3--5-5--1--1--5--5-----|5--3--5--3--5-5-----------------5--3--5--3--5-5--1--1--3--3-----|5--3--5--3--5-5-----------------5--3--5--3--5-5--1--1-----------|
----------------------------------------------------------------|----------------------------------------------------------------|----------------10-10-10-10--------------------10--10--10--10---|5--3--5--3--5-5--8--8--8--8----5--3--5--3--5-5--8--8---10--10---|5--3--5--3--5-5--6--6--6--6----5--3--5--3--5-5--6--6---8---8----|5--3--5--3--5-5----------------5--3--5--3--5-5------------------|
----------------------------------------------------------------|----------------------------------------------------------------|----------------------------------------------------------------|----------------10-10-10-10-----------------------10--10--10----|5--3--5--3--5-5--8--8--8--8----5--3--5--3--5-5----10--10--10----|5--3--5--3--5-5--6--6--6--6----5--3--5--3--5-5-----8---8---8----|5--3--5--3--5-5----------------5--3--5--3--5-5------------------|
chorus 1st guitar
----------------------------------------------------------------|----------------------------------------------------------------|5----1----7----3----5----1----7----3----------------------------|5----1----7----3----5----1----7----3----------------------------|5----1----7----3----5----1----7----3----------------------------|
chorus 2nd guitar
----------------------------------------------------------------|----------------------------------------------------------------|12----15--14--12-----10---15--14--------------------------------|----------------------------------------------------------------|10----13--12--10-----8----13--12--------------------------------|----------------------------------------------------------------|
2nd verse
----------------------------------------------------------------|----------------------------------------------------------------|----------------------------------------------------------------|5--3--5--3--5-5-----------------5--3--5--3--5-5-----------------|5--3--5--3--5-5-----------------5--3--5--3--5-5-----------------|5--3--5--3--5-5-----------------5--3--5--3--5-5-----------------|
----------------------------------------------------------------|----------------------------------------------------------------|-------------------------------------------------------5--5-----|5--3--5--3--5-5-----------------5--3--5--3--5-5--1--1--5--5-----|5--3--5--3--5-5-----------------5--3--5--3--5-5--1--1--3--3-----|5--3--5--3--5-5-----------------5--3--5--3--5-5--1--1-----------|
----------------------------------------------------------------|----------------------------------------------------------------|------------------------------------------------10-10-10-10-----|5--3--5--3--5-5--1-1-1-0-0------5--3--5--3--5-5--8--8--8--8-----|5--3--5--3--5-5--1-1-1-0-0------5--3--5--3--5-5--6--6--6--6-----|5--3--5--3--5-5--1-1-1-0-0------5--3--5--3--5-5-----------------|
----------------------------------------------------------------|----------------------------------------------------------------|---------------------------------------------------10-10-10-----|5--3--5--3--5-5------7----8-7---5--3--5--3--5-5----10-10-10-----|5--3--5--3--5-5-----------------5--3--5--3--5-5-----8--8--8-----|5--3--5--3--5-5--5-5--5-5-------5--3--5--3--5-5-----------------|
chorus 1st guitar
----------------------------------------------------------------|----------------------------------------------------------------|----------------------------------------------------------------|5----1----7----3----5----1----7----3----------------------------|5----1----7----3----5----1----7----3----------------------------|5----1----7----3----5----1----7----3----------------------------|
chorus 2nd guitar
----------------------------------------------------------------|----------------------------------------------------------------|12----15--14--12-----10---15--14--------------------------------|----------------------------------------------------------------|10----13--12--10-----8----13--12--------------------------------|----------------------------------------------------------------|
1st bridge 1st guitar
----------------------------------------------------------------|----11----11----11--11-----11---11-----11---11------------------|----------------------------------------------------------------|--0-------0----8---6------8----8-----10---10--------------------|10----10------6---6-----10---10-----8----8----------------------|----------------------------------------------------------------|
1st bridge 2nd guitar
----------------------------------------------------------------|----------------------------------------------------------------|----------------------------------------------------------------|5-5-----1-1-----7-7-----3-3-----5-5-----1-1-----7-7-----3-3-----|5-5-----1-1-----7-7-----3-3-----5-5-----1-1-----7-7-----3-3-----|5-5-----1-1-----7-7-----3-3-----5-5-----1-1-----7-7-----3-3-----|
2nd bridge
----------------------------------------------------------------|----------------------------------------------------------------|----------------------------------------------------------------|5-5-----1-1-----7-7-----3-333-----5-5-----1-1-----7777-3--------|5-5-----1-1-----7-7-----3-333-----5-5-----1-1-----7777-3--------|5-5-----1-1-----7-7-----3-333-----5-5-----1-1-----7777-3--------|
breakdown
----------------------------------------------------------------|----------------------------------------------------------------|----------------------------------------------------------------|555--555--555--555--11111--555--555--777--777--333333335--------|555--555--555--555--11111--555--555--777--777--333333335--------|555--555--555--555--11111--555--555--777--777--333333335--------|
chorus 1st guitar
----------------------------------------------------------------|----------------------------------------------------------------|----------------------------------------------------------------|5----1----7----3----5----1----7----3----------------------------|5----1----7----3----5----1----7----3----------------------------|5----1----7----3----5----1----7----3----------------------------|
chorus 2nd guitar
----------------------------------------------------------------|----------------------------------------------------------------|12----15--14--12-----10---15--14--------------------------------|----------------------------------------------------------------|10----13--12--10-----8----13--12--------------------------------|----------------------------------------------------------------|
Tap to rate this tab
 
# A B C D E F G H I J K L M N O P Q R S T U V W X Y Z